El Oso Carpintero, Pedro Infante (acordes) (ver 2)

Autor: Anónimo | 21300 visualizaciones

cddmdm7emf


M--0-------------0-----------------0--
B--1-------------1-----------------3--
G--0-------------2-----------------4--
D--2-------------3-x---------------5-x
A--3--x----------0-----------------0--
E--0-------------0-----------------0--
   C             F*                G*


M---5------------7----------------5---
B---5-7----------7-8--------------5-7-
G---5------------7----------------5-7-
D---5-7-x--------7-9-x------------5-7-
A---5------------7----------------5---
E---5------------7----------------5----
    D7*            Em*             D


M---0------------1---------------------
B---0------------3---------------------
G---0------------2---------------------
D---2-x----------0-x-------------------
A---2------------0---------------------
E---0------------0---------------------
    Em           Dm

LA PAUTA ES DAR EL BAJEO Y JALAR LAS CUERDAS CON INDICE,MEDIO
Y ANULAR COMO APAGANDO EL BAJEO.
INTRO: G*-C-F*-Em-Dm [X2]

 C        F*          Em    Dm           C   F* Em Dm
Este era un oso carpintero que vivia muy pobre
    C    F*           Em    Dm           C       F Em Dm
lloraba porque sus ositos le chillaban de hambre
      G*   D7*             Em*      D7*        G*  Dm7 Em*
la urraca le robó el martillo, clavos y serrote,
    G*    D7*              Em*    D
lloraba porque su herramienta no podia comprar

                       C-F*-Em-Dm
Oye papachito "quelo" pan
C
hijo de mi vida no lo hay

    G*             C         G*            C
Un lindo y rico venado que oyó del oso la pena
    G*             C     F*         Em      G*    C
le dio cuarenta monedas pa´ herramienta y material.

G*-C-F*-Em-Dm [X2]
Y Se repite toda la madrola...

Y el oso con sus seis ositos hizo bicicletas
con ruedas de naranjas dulces y sus cornetas
los gatos las compraron todas para echar carreras
en contra de los conejitos del palacio real

Y gano con esto un dineral
y le dio al venado un festival.

Y hoy tiene tan gran tesoro que a cada osito le ha dado
tres costalitos de oro, mil jugetes, miel y pan.

***OTRA ROLA QUE FUE UN RETO, PERO QUEDO AL PEDO***
M.I.P. TAYLOR.
-NO TE SIENTAS VENCIDO NI AUN VENCIDO-





Calificar esta versión:
Aviso: Este fichero es trabajo propio de su transcriptor y representa su interpretación personal de la canción. El material contenido en esta página es para exclusivo uso privado, por lo que se prohibe su reproducción o retransmisión, así como su uso para fines comerciales.
Más versiones de El Oso Carpintero, Pedro Infante
El Oso Carpintero
acordes
El Oso Carpintero (ver 2)
acordes
El Oso Carpintero
tablatura
Descubre más canciones de Pedro Infante