Deseo, Pedro Guerra (tablatura) (ver 2)

Autor: Anónimo | 15572 visualizaciones

|--------------------------------------------------------------------------------|
|--------2------2--------------2------2-----------2------2-----------2--------2--|
|------2---2------2---------2----2------2-------2---2------2-------2---2----2----|
|----2-------2-----------2---------2----------2-------2----------2-------2-------|
|--0------------------0---------------------0------------------0-----------------|
|--------------------------------------------------------------------------------|


Te seguiré hasta el final, te buscaré en todas partes, bajo la luz y las sombras
|-----------------------------------------------------------------------|
|--------2------2---------3----3------------2-----2-----------3----3----|
|------2---2------------4----4------------2-----------------2--------2--|
|----2-------2--------2-----------------2------2----------0------0------|
|--0--------------------------------------------------------------------|
|-------------------4--------------4-3----------------3-2---------------|


y en los dibujos del aire
|-------------0------|
|---------2-------2--|
|-------2---2---2----|
|-----2--------------|
|--------------------|
|--0-----------------|


Te seguiré hasta el final, te pediré de rodillas, que te desnudes amor
|-------------0----------------0------------------0----|
|---------2-----2-----------3-----3----------2------2--|
|-------2---2-------------4----------------2---2-------|
|-----2-----------------2----------------2-------------|
|--0---------------------------------------------------|
|--------------------4----------------3----------------|


te mostraré mis heridas
|-------------0-----|
|---------2-----2---|
|-------2---2-----2-|
|-----2-------------|
|-------------------|
|--0----------------|


Y con las luces del alba, antes que tú te despiertes, se hará ceniza el deseo, me marcharé
|-----------0----------------0--------------------0-----------------------0--|
|---------2---2-----------2-----2-------------3-----3----------1--------0----|
|-------2-------2-------2---------2---------2---------2----------2-----------|
|-----2---------------2-------------------0-----0------------3--------2------|
|--0-------------------------------------------------------------------------|
|------------------3-----------------3-2-----------------2-1--------0--------|
para siempre



Te seguiré hasta el final, entre los musgos del bosque, te pediré tantas veces,
|----------0----------------2-------------------------------------0----|
|--------2---2------------3---3--------------2----------------3-----3--|
|------2----------------4-------4----------2---2------------2---2------|
|----2----------------2------------------2-------2--------0------------|
|-0--------------------------------------------------------------------|
|------------------4----------------4-3--------------3-2---------------|


que hagamos nuestra la noche
|-------------0------|
|---------2-----2----|
|-------2---2-----2--|
|-----2--------------|
|--------------------|
|--0-----------------|


Te seguiré hasta el final, con el tesón del acero, te buscaré por la lluvia,
|-----------0----------------2-------------------------------------0----|
|---------2---2------------3---3--------------2----------------3-----3--|
|-------2----------------4-------4----------2---2------------2---2------|
|-----2----------------2------------------2-------2--------0------------|
|--0--------------------------------------------------------------------|
|-------------------4----------------4-3--------------3-2---------------|


para mojarme en tu beso
|-------------0------|
|---------2-----2----|
|-------2---2-----2--|
|-----2--------------|
|--------------------|
|--0-----------------|


Y con las luces del alba, antes que tú te despiertes, se hará ceniza el deseo, me marcharépara
|-----------0-----------------0--------------------0-----------------------0--|
|---------2---2------------2-----2-------------3-----3----------1--------0----|
|-------2-------2--------2---------2---------2---------2----------2-----------|
|-----2----------------2-------------------0-----0------------3--------2------|
|--0--------------------------------------------------------------------------|
|-----------------4-3-----------------3-2-----------------2-1--------0--------|


siempre..y cuando todo se acabe,y se hagan polvo las alas,no habré sabido por qué,me he vuelto loco
|-------------0----------------0------------------0-------------------------0--|
|---------2-----2----------2-----2------------3-----3------------1----------0--|
|-------2---2------------2---2--------------2---2-----2--------2---------1--1--|
|-----2----------------2------------------0---------------------------------2--|
|--0------------------------------------------------------------------------2--|
|-------------------3----------------3-2------------------2-1--------1-0----0--|
 loco por nada


Te seguiré hasta el
final,  por la escalera del viento, para rogarte
|----------0-----------------------|
|--------3---3-------------2-------|
|------4-------4---------2---2-----|
|----2-----------------2-------2---|
|----------------------------------|
|-4---------------4-3--------------|
por Dios, que me hagas sitio en tus besos



Y con las luces del alba, antes que tú te despiertes, se hará ceniza el deseo,me marcharé
|------0--------0---------0--------0---------------------------------|
|----2---2----2---2-----2---2----2----------3---------3---------3----|
|--2--------2---------0--------0------0---2---2-----2---2-----2---2--|
|---------------------------------------4---------3---------2--------|
|--------------------------------------------------------------------|
|--------------------------------------------------------------------|


para siempre.. y cuando todo se acabe, y se hagan polvo las alas, no habré
|--------------------------0-----------0---------------0-----------1--|
|------0-------------2---2-----------2--2------------3--3--------1----|
|----2---2---------2---------------2-----2---------2-----2------------|
|--2-------------2-----2---------2---------------0--------------------|
|--------------0------------------------------------------------------|
|------------------------------3-------------3-2-------------2-1------|


 sabido por qué, me he vuelto loco por nada, y con las luces del alba, antes que tu
|----------1--------0-----------------0----------------0-----------|
|--------1------------------------2-----------------2----2---------|
|-----------------1------------2----2-------------2----------------|
|---------------------------2-------------------2------------------|
|------------------------0-----------------0-----------------------|
|---2-1--------0-----------------------------3----------------2-3--|

te dspiertes, se hara ceniza el deseo, me marchare para siempre, y cuando todo se acabe
|---------0--------------------------------------------0-----------|
|------3----3------------1------------0----------2---2---2---------|
|----2--------2--------2---2--------1----------2---2---------------|
|--0------------------------------2----------2---------------------|
|-----------------------------------------0------------------------|
|-----------------2-1----------0--------------------------------3--|
y se hagan polvo las hadas,


no habre sabido por quee me he vuelto locooo por nada
|---------------0---------------------------0--|
|---------3-------3----------1--------------0--|
|-------2-----2----------------2--------1---1--|
|-----0-----0--------------3----------------2--|
|-------------------------------------------2--|
|--2------------------2-1-------------0-----0--|


|-------------1---0--|
|-------2---------2--|
|-----2---2-------2--|
|---2-------2-----2--|
|-0---------------0--|



DESEO

Te seguiré hasta el final
te buscaré en todas partes
bajo la luz y las sombras
y en los dibujos del aire
Te seguiré hasta el final
te pediré de rodillas
que te desnudes amor
te mostraré mis heridas
Y con las luces del alba
antes que tú te despiertes
se hará ceniza el deseo
me marcharé para siempre
Te seguiré hasta el final
entre los musgos del bosque
te pediré tantas veces
que hagamos nuestra la noche
Te seguiré hasta el final
con el tesón del acero
te buscaré por la lluvia
para mojarme en tu beso
Y con las luces del alba
antes que tú te despiertes
se hará ceniza el deseo
me marcharé para siempre
y cuando todo se acabe
y se hagan polvo las alas
no habré sabido por qué
me he vuelto loco por nada
Te seguiré hasta el final
por la ladera del viento
para rogarte, por Dios
que me hagas sitio en tus besos
Y con las luces del alba
antes que tú te despiertes
se hará ceniza el deseo
me marcharé para siempre
y cuando todo se acabe
y se hagan polvo las alas
no habré sabido por qué
me he vuelto loco por nada
Y con las luces del alba
antes que tú te despiertes
se hará ceniza el deseo
me marcharé para siempre
y cuando todo se acabe
y se hagan polvo las alas
no habré sabido por qué
me he vuelto loco por nada.


t dediko esta kancion a ti Sofi, debido a ke eres lo ke mas DESEO...
te amo, Te seguiré hasta el final
Gracias
Aviso: Este fichero es trabajo propio de su transcriptor y representa su interpretación personal de la canción. El material contenido en esta página es para exclusivo uso privado, por lo que se prohibe su reproducción o retransmisión, así como su uso para fines comerciales.
Más versiones de Deseo, Pedro Guerra
Deseo
acordes
Deseo
tablatura
Deseo (ver 2)
tablatura
Deseo
video guitarra
Descubre más canciones de Pedro Guerra

Comentarios en Facebook: