A Primera Vista, Pedro Aznar (tablatura)

Autor: Anónimo | 46749 visualizaciones



Acá les dejo las tablaturas de los arpegios de cada acorde de
la versión de Pedro Aznar, junto con la aclaración de cuál es
el acorde (entre paréntesis sobre el arpegio). Lo que si, van
a tener que ayudarse con un cancionero que les diga la letra
y el orden de las estrofas.

LA PRIMERA SECUENCIA [C - G#º - Am - F#º - F - F#º - G] se
repite durante toda la canción (es la INTRO y la base). A
lo sumo cambian algunos detalles del arpegio, pero eso a gusto.

En el único momento que cambia es en el INTER CORAL, es decir,
cuando termina la estrofa (mientras canta "Amarazáia zoê, záia,
záia A hin hingá do hanhan.. Ohhh Amarazáia zoê, záia, záia A
hin hingá do hanhan..")



1º SECUENCIA

      (C)         (G#º)      (Am)            (F#º)
E|-------0-----------------------------------------------
B|---------1--------3-------------1-------------1--------
G|----0----------------4------------2---------2----2---2-
D|----------------3------3-----2------------1--------1---
A|-3------------------------0----------------------------
E|----------3--4----------------------3--2---------------


      (F)                         (F#º)
E|-----------------------------------------------------------
B|-------1---------1---------------------------1-------------
G|---------2-------------2-------------2-------------2-------
D|------------3-------------3-------1-----1-------------1----
A|----3------------------------------------------------------
E|-1------------1-----1--------1--2----------2-----1-------1-

    (G)                /   (-] C)
E|---------------------/-------||
B|------0-----1p0---1p-/-------||
G|---------0------0---0/-------||
D|---0-----------------/-------||
A|---------------------/-2-(3)-||
E|-3-------------------/-------||

________


INTER CORAL

     (Am)     (Am/Ge#)  (Am/G)     (F#º)    (F)
E|--------------------------------------------------------------
B|-----1---------1---------1---------1---------------1----------
G|-------2---------2---------2---------2-------2-------2---2----
D|---2-----2---2-----2---2-----2---1-----1-------3-------3---3--
A|-0-----------------------------------------3-----3------------
E|-----------4---------3---------2---------1-------------------1

   (F#º)                (G)
E|-------------------------------------------||
B|-----------1-------------0---1---1p0-------||
G|-----2---------2-----------0---------------||
D|---1---1-----1---1-----0-------0-----------||
A|-------------------------------------2-(3)-||
E|-2-------1---------1-3---------------------||



La verdad es que en los arpegios F se me complicó para sacar
exactamente la versión de Pedro Aznar, pero sean libres de
interpretarla como les guste, siempre que respete el ritmo y
el acorde.

Cualquier consulta, no duden en consultar: cristirjs@yahoo.com.ar





Calificar esta versión:
Aviso: Este fichero es trabajo propio de su transcriptor y representa su interpretación personal de la canción. El material contenido en esta página es para exclusivo uso privado, por lo que se prohibe su reproducción o retransmisión, así como su uso para fines comerciales.
Más versiones de A Primera Vista, Pedro Aznar
A Primera Vista
acordes
A Primera Vista (ver 2)
acordes
A Primera Vista (ver 3)
acordes
A Primera Vista (ver 4)
acordes
A Primera Vista
tablatura
Descubre más canciones de Pedro Aznar