Indifference, Pearl Jam (tablatura)

Autor: Alfre2_Rock | 38301 visualizaciones



Solo 1 minuto 1:3 hasta minuto 1:19

e---12--10------------------------------------------------------
B------------12--10---7--8--10--8-------------------------------
G---------------------------------------------------------------
D---------------------------------------------------------------
A---------------------------------------------------------------
E---------------------------------------------------------------

Solo 2 y 3 minuto 1:40 y 1:58 y solo 3 minuto 2:54 y 3:12

e--12-10--------------15--12-10---------------------------------
B---------------12------------------------12--------------------
G---------------------------------------------------------------
D---------------------------------------------------------------
A---------------------------------------------------------------
E---------------------------------------------------------------


e---12-10--------------15--12-10-----------10-10-12-------------
B---------------12-----------12---------------------------------
G---------------------------------------------------------------
D---------------------------------------------------------------
A---------------------------------------------------------------
E---------------------------------------------------------------

e---12-10---------------15--12-10-------------------------------
B---------------12------------12--------------------------------
G---------------------------------------------------------------
D---------------------------------------------------------------
A---------------------------------------------------------------
E---------------------------------------------------------------


e---12-10--------------15--12-10----------10-10-12--12----------
B---------------12----------12----------------------------------
G---------------------------------------------------------------
D---------------------------------------------------------------
A---------------------------------------------------------------
E---------------------------------------------------------------





Calificar esta versión:
Aviso: Este fichero es trabajo propio de su transcriptor y representa su interpretación personal de la canción. El material contenido en esta página es para exclusivo uso privado, por lo que se prohibe su reproducción o retransmisión, así como su uso para fines comerciales.
Más versiones de Indifference, Pearl Jam
Indifference
acordes
Indifference
tablatura
Descubre más canciones de Pearl Jam