Alive, Pearl Jam (tablatura)

Autor: veddier | 21857 visualizaciones



-|---------|---------------------------|--------------------------|-----------
-|---------|---------------------------|--------------------------|-----------
-|-------0-|-2-------------------2-2-2-|-2----------------------0-|-----------
-|-----0---|-2----0h7h9---7vvvv--2-2-2-|-2----0h7h9--7-9b10r9-7-0-|-----------
-|-10-----|-0-/7----------------0-0-0-|-0-/7---------------------|-----------
-|---------|---------------------------|--------------------------|-----------
   Intro, G1 Gosard                                                                 

-|---------------------------|--------------------------|---------------------
-|---------------------------|--------------------------|---------------------
-|-2-------------------0-0-0-|-2----------------------0-|---------------------
-|-2----0h7h9---7vvvv--0-0-0-|-2----0h7h9--7-9b10r9-7-0-|---------------------
-|-0-/7----------------0-0-0-|-0-/7---------------------|---------------------
-|---------------------------|--------------------------|---------------------
 G1                                                                           

-|---------------------------|--------------------------|---------------------
-|-5-5---5--5--5-5--5--------|-5-5--5-5-5---5-----------|---------------------
-|-7-7---6--6--6-6--7--------|-7-7--6-6-6---7-----------|---------------------
-|-7-7---7--7--7-7--7--------|-7-7--7-7-7---7-----------|---------------------
-|-0-------------------------|--------------------------|---------------------
-|---------------------------|--------------------------|---------------------
 G2 Base Mike                                                                                                    
                                               
-|---------------------------|--------------------------|-------------------|-
-|---------------------------|--------------------------|--------------8----|-
-|-2-------------------0-0-0-|-2----------------------0-|-10-10-10-10-----9-|-
-|-2----0h7h9---7vvvv--0-0-0-|-2----0h7h9--7-9b10r9-7-0-|-10-10-10-10----10-|-
-|-0-/7----------------0-0-0-|-0-/7---------------------|-------------------|-
-|---------------------------|--------------------------|-------------------|-
 G1 Gosard                                                                          

-|---1--1--1--1---0--0------------------|
-|---1--1--1--1---1--1------------------|
-|---2--2--2--2---0--0------------------|
-|---3--3--3--3---2--2------------------|
-|---3--3--3--3---3--3------------------|
-|---1--1--1--1-------------------------|
 G2  Mike                                                                                                                    

-|-----------------------------|--------------------------|-------------------
-|-----------------------------|--------------------------|-------------------
-|-----------------------------|--------------------------|-------------------
-|------0h7h9---7vvvv----------|------0h7h9--7-9b10r9-7---|-------------------
-|-0-/7--------------------0-0-|-0-/7-------------------0-|-------------------
-|-----------------------------|--------------------------|-------------------
 G1     Son__________  she said have I got a little story for you             

-|---------------------------|--------------------------|---------------------
-|-5-5---5--5--5-5--5--------|-5-5--5-5-5---5-----------|---------------------
-|-7-7---6--6--6-6--7--------|-7-7--6-6-6---7-----------|---------------------
-|-7-7---7--7--7-7--7--------|-7-7--7-7-7---7-----------|---------------------
-|-x--------x----------------|--------------------------|---------------------
-|---------------------------|--------------------------|---------------------
 G2    Mike                                                                       

-|------------------------------|--------------------------|------------------
-|------------------------------|--------------------------|------------------
-|------------------------------|--------------------------|------------------
-|------0h7h9------7vvvv--------|-2----0h7h9--7-9b10r9-7-0-|------------------
-|-0-/7---------------------0-0-|-0-/7---------------------|------------------
-|------------------------------|--------------------------|------------------
 G1          What you thought...  daddy  was nothin but a...                  

-|---------------------------|--------------------------|---------------------
-|-5-5---5--5--5-5--5--------|-5-5--5-5-5---5-----------|---------------------
-|-7-7---6--6--6-6--7--------|-7-7--6-6-6---7-----------|---------------------
-|-7-7---7--7--7-7--7--------|-7-7--7-7-7---7-----------|---------------------
-|-x--------x----------------|--------------------------|---------------------
-|---------------------------|--------------------------|---------------------
 G2                                                                           

-|--------------------------------|--------------------------|----------------
-|--------------------------------|--------------------------|----------------
-|--------------7vvvv-------------|--------------------------|----------------
-|-2----0h7h9---------------------|-2----0h7h9--7-9b10r9-7---|----------------
-|-0-/7-----------------------0-0-|-0-/7-------------------0-|----------------
-|--------------------------------|--------------------------|----------------
 G1         While you were sitting  home alone at age thirteen...             

-|---------------------------|--------------------------|---------------------
-|-5-5---5--5--5-5--5--------|-5-5--5-5-5---5-----------|---------------------
-|-7-7---6--6--6-6--7--------|-7-7--6-6-6---7-----------|---------------------
-|-7-7---7--7--7-7--7--------|-7-7--7-7-7---7-----------|---------------------
-|-x--------x----------------|--------------------------|---------------------
-|---------------------------|--------------------------|---------------------
 G2                                                                           

-|----------------------------------|--------------------------|--------------
-|----------------------------------|--------------------------|--------------
-|-2-----------------------0--0---0-|-2------------------------|--------------
-|-2----0h7h9--------7vvvv-0--0---0-|-2----0h7h9--7-9b10r9-7-0-|--------------
-|-0-/7--------------------0--0---0-|-0-/7---------------------|--------------
-|----------------------------------|--------------------------|--------------
 G1          Your real dad-dy was dy--ing         sorry you didn't            

-|---------------------------|--------------------------|---------------------
-|-5-5---5--5--5-5--5--------|-5-5--5-5-5---5-----------|---------------------
-|-7-7---6--6--6-6--7--------|-7-7--6-6-6---7-----------|---------------------
-|-7-7---7--7--7-7--7--------|-7-7--7-7-7---7-----------|---------------------
-|-x--------x----------------|--------------------------|---------------------
-|---------------------------|--------------------------|---------------------
 G2                                                                           

-|--------------------------------------|---------------------|---------------
-|----------------8---------------------|---------------8-----|---------------
-|--10-10-10-10------9----10--9---------|-10-10-10-10------9--|---------------
-|--10-10-10-10-----10----10-10---------|-10-10-10-10-----10--|---------------
-|--------------------------------------|---------------------|---------------
-|--------------------------------------|---------------------|---------------
 G1  See him                but I'm glad         we talked   Ohh              

-|---1--1--1--1---0--0------0-0-------0-|--1--1--1--1---0--0--|---------------
-|---1--1--1--1---1--1------1-1-3--3--1-|--1--1--1--1---1--1--|---------------
-|---2--2--2--2---0--0------0-0-0--0--0-|--2--2--2--2---0--0--|---------------
-|---3--3--3--3---2--2------2-2-2--2--2-|--3--3--3--3---2--2--|---------------
-|---3--3--3--3---3--3------3-3-3--3--3-|--3--3--3--3---3--3--|---------------
-|---1--1--1--1-------------------------|--1--1--1--1---------|---------------
 G2                                                                           

-|-------------------------------------------------------------------|--------
-|-----------------------------------7---8-7-10-8-7------------------|--------
-|--9-9-9-9-9---------12--12/12------7--------------9----6-----------|--------
-|--9-9-9-9-9---------12--12-12------7--------------------------7----|--------
-|--7-7-7-7-7---------10--10/10------0-----------------------0-------|--------
-|-------------------------------------------------------------------|--------
 G1 I__________      Oh_____________ I'm still alive   hey_______  2x         

-|--0-----0-0-0-0-0--3---3-3--3-3-3--2---2-2--2-2-2-0-----0-0-0-0-0--|--------
-|--0-----0-0-0-0-0--3---3-3--3-3-3--3---3-3--3-3-3-2-----2-2-2-2-2--|--------
-|--1-----1-1-1-1-1--0---0-0--0-0-0--2---2-2--2-2-2-2-----2-2-2-2-2--|--------
-|--2-----2-2-2-2-2--0---0-0--0-0-0--0---0-0--0-0-0-2-----2-2-2-2-2--|--------
-|--2-----2-2-2-2-2--2---2-2--2-2-2-----------------0-----0-0-0-0-0--|--------
-|--0-----0-0-0-0-0--3---3-3--3-3-3----------------------------------|--------
 G2     Mike                                                           2x         

-|-------------------------------------------------------------------|--------
-|-----------------------------------7---8-7-10-8-7------------------|--------
-|--9-9-9-9-9---------12--12/12------7--------------9----6-----------|--------
-|--9-9-9-9-9---------12--12-12------7--------------------------7----|--------
-|--7-7-7-7-7---------10--10/10------0-----------------------0-------|--------
-|-------------------------------------------------------------------|--------
 G1 I________        Oh_____________ I'm still alive   hey__    ohhh          

-|--0-----0-0-0-0-0--3---3-3--3-3-3--2---2-2--2-2-2-0-----0-0-0-0-0-----|-----
-|--0-----0-0-0-0-0--3---3-3--3-3-3--3---3-3--3-3-3-2-----2-2-2-2-2-----|-----
-|--1-----1-1-1-1-1--0---0-0--0-0-0--2---2-2--2-2-2-2-----2-2-2-2-2-----|-----
-|--2-----2-2-2-2-2--0---0-0--0-0-0--0---0-0--0-0-0-2-----2-2-2-2-2-----|-----
-|--2-----2-2-2-2-2--2---2-2--2-2-2-----------------0-----0-0-0-0-0-----|-----
-|--0-----0-0-0-0-0--3---3-3--3-3-3-------------------------------------|-----
 G2                                                                           

-|----------------------------------|-----------------------------------------
-|-12-12-12-12--12-12-12-12--12-12--|-----------------------------------------
-|-11-11-11-11--11-11-11-11--11-11--|-----------------------------------------
-|--9--9--9--9---9--9--9--9---9--9--|-----------------------------------------
-|--9--9--9--9---9--9--9--9---9--9--|-----------------------------------------
-|--------------11-11-11-11--11-11--|-----------------------------------------
 G1+G2                        Ohhhh                                           

-|----------------------------------|--------------------------|--------------
-|----------------------------------|--------------------------|--------------
-|----------------------------------|--------------------------|--------------
-|------0h7h9---------7vvvv---------|------0h7h9--7-9b10r9-7-0-|--------------
-|-0-/7-------------------------0-0-|-0-/7---------------------|--------------
-|----------------------------------|--------------------------|--------------
 G1         While she walked slowly            across a young man's room      

-|---------------------------|--------------------------|---------------------
-|-5-5---5--5--5-5--5--------|-5-5--5-5-5---5-----------|---------------------
-|-7-7---6--6--6-6--7--------|-7-7--6-6-6---7-----------|---------------------
-|-7-7---7--7--7-7--7--------|-7-7--7-7-7---7-----------|---------------------
-|-x--------x----------------|--------------------------|---------------------
-|---------------------------|--------------------------|---------------------

 G2                                                                           

-|----------------------------|--------------------------|--------------------
-|----------------------------|--------------------------|--------------------
-|----------------------------|--------------------------|--------------------
-|------0h7h9---7vvvv---------|------0h7h9--7-9b10r9-7-0-|--------------------
-|-0-/7------------------x--x-|-0-/7---------------------|--------------------
-|----------------------------|--------------------------|--------------------
 G1            She said I'm ready            for you                          

-|---------------------------|--------------------------|---------------------
-|-5-5---5--5--5-5--5--------|-5-5--5-5-5---5-----------|---------------------
-|-7-7---6--6--6-6--7--------|-7-7--6-6-6---7-----------|---------------------
-|-7-7---7--7--7-7--7--------|-7-7--7-7-7---7-----------|---------------------
-|-x--------x----------------|--------------------------|---------------------
-|---------------------------|--------------------------|---------------------

 G2                                                                           

-|--------------------------|--------------------------|----------------------
-|--------------------------|--------------------------|----------------------
-|--------------7vvvv-------|--------------------------|----------------------
-|------0h7h9---------------|------0h7h9--7-9b10r9-7-0-|----------------------
-|-0-/7-----------------0-0-|-0-/7---------------------|----------------------
-|--------------------------|--------------------------|----------------------
 G1         I can't remember  anything to this very day                       

-|---------------------------|--------------------------|---------------------
-|-5-5---5--5--5-5--5--------|-5-5--5-5-5---5-----------|---------------------
-|-7-7---6--6--6-6--7--------|-7-7--6-6-6---7-----------|---------------------
-|-7-7---7--7--7-7--7--------|-7-7--7-7-7---7-----------|---------------------
-|-x--------x----------------|--------------------------|---------------------
-|---------------------------|--------------------------|---------------------

 G2                                                                           

-|---------------------------|--------------------------|---------------------
-|---------------------------|--------------------------|---------------------
-|-2-------------------0-0-0-|-2------------------------|---------------------
-|-2----0h7h9---7vvvv--0-0-0-|-2----0h7h9--7-9b10r9-7-0-|---------------------
-|-0-/7----------------0-0-0-|-0-/7---------------------|---------------------
-|---------------------------|--------------------------|---------------------
 G1          'Cept the look            the look  ohh                          

-|---------------------------|--------------------------|---------------------
-|-5-5---5--5--5-5--5--------|-5-5--5-5-5---5-----------|---------------------
-|-7-7---6--6--6-6--7--------|-7-7--6-6-6---7-----------|---------------------
-|-7-7---7--7--7-7--7--------|-7-7--7-7-7---7-----------|---------------------
-|-x--------x----------------|--------------------------|---------------------
-|---------------------------|--------------------------|---------------------

 G2                                                                           

-|--------------------------------------|-------------------------|-----------
-|----------------8---------------------|---------------8---------|-----------
-|--10-10-10-10------9----10--9---------|-10-10-10-10------9------|-----------
-|--10-10-10-10-----10----10-10---------|-10-10-10-10-----10------|-----------
-|--------------------------------------|-------------------------|-----------
-|--------------------------------------|-------------------------|-----------
 G1   You know where              now      I can see         I just           

-|---1--1--1--1---0--0------0-0-------0-|--1--1--1--1---0--0------|-----------
-|---1--1--1--1---1--1------1-1-3--3--1-|--1--1--1--1---1--1------|-----------
-|---2--2--2--2---0--0------0-0-0--0--0-|--2--2--2--2---0--0------|-----------
-|---3--3--3--3---2--2------2-2-2--2--2-|--3--3--3--3---2--2------|-----------
-|---3--3--3--3---3--3------3-3-3--3--3-|--3--3--3--3---3--3------|-----------
-|---1--1--1--1-------------------------|--1--1--1--1-------------|-----------
 G2                                                                           

-|-------------------------------------------------------------------|--------
-|-----------------------------------7---8-7-10-8-7------------------|--------
-|--9-9-9-9-9---------12--12/12------7--------------9----6-----------|--------
-|--9-9-9-9-9---------12--12-12------7--------------------------7----|--------
-|--7-7-7-7-7---------10--10/10------0-----------------------0-------|--------
-|-------------------------------------------------------------------|--------
 G1 Stare___________ I______________ I'm still alive   hey_______             

-|--0-----0-0-0-0-0--3---3-3--3-3-3--2---2-2--2-2-2-0-----0-0-0-0-0-|---------
-|--0-----0-0-0-0-0--3---3-3--3-3-3--3---3-3--3-3-3-2-----2-2-2-2-2-|---------
-|--1-----1-1-1-1-1--0---0-0--0-0-0--2---2-2--2-2-2-2-----2-2-2-2-2-|---------
-|--2-----2-2-2-2-2--0---0-0--0-0-0--0---0-0--0-0-0-2-----2-2-2-2-2-|---------
-|--2-----2-2-2-2-2--2---2-2--2-2-2-----------------0-----0-0-0-0-0-|---------
-|--0-----0-0-0-0-0--3---3-3--3-3-3---------------------------------|---------
 G2                                                                           

-|-------------------------------------------------------------------|--------
-|-----------------------------------7---8-7-10-8-7------------------|--------
-|--9-9-9-9-9---------12--12/12------7--------------9----6-----------|--------
-|--9-9-9-9-9---------12--12-12------7--------------------------7----|--------
-|--7-7-7-7-7---------10--10/10------0-----------------------0-------|--------
-|-------------------------------------------------------------------|--------
 G1 I________        Oh_____________ I'm still alive   hey_______ 2x          

-|--0-----0-0-0-0-0--3---3-3--3-3-3--2---2-2--2-2-2-0-----0-0-0-0-0-|---------
-|--0-----0-0-0-0-0--3---3-3--3-3-3--3---3-3--3-3-3-2-----2-2-2-2-2-|---------
-|--1-----1-1-1-1-1--0---0-0--0-0-0--2---2-2--2-2-2-2-----2-2-2-2-2-|---------
-|--2-----2-2-2-2-2--0---0-0--0-0-0--0---0-0--0-0-0-2-----2-2-2-2-2-|---------
-|--2-----2-2-2-2-2--2---2-2--2-2-2-----------------0-----0-0-0-0-0-|---------
-|--0-----0-0-0-0-0--3---3-3--3-3-3---------------------------------|---------
 G2                                                               2x          

-|-------------------------------------------------------------------|--------
-|-----------------------------------7---8-7-10-8-7------------------|--------
-|--9-9-9-9-9---------12--12/12------7--------------9----6-----------|--------
-|--9-9-9-9-9---------12--12-12------7--------------------------7----|--------
-|--7-7-7-7-7---------10--10/10------0-----------------------0-------|--------
-|-------------------------------------------------------------------|--------
 G1 I________        Oh_____________ I'm still alive   hey_____               

-|--0-----0-0-0-0-0--3---3-3--3-3-3--2---2-2--2-2-2-0-----0-0-0-0-0-----|-----
-|--0-----0-0-0-0-0--3---3-3--3-3-3--3---3-3--3-3-3-2-----2-2-2-2-2-----|-----
-|--1-----1-1-1-1-1--0---0-0--0-0-0--2---2-2--2-2-2-2-----2-2-2-2-2-----|-----
-|--2-----2-2-2-2-2--0---0-0--0-0-0--0---0-0--0-0-0-2-----2-2-2-2-2-----|-----
-|--2-----2-2-2-2-2--2---2-2--2-2-2-----------------0-----0-0-0-0-0-----|-----
-|--0-----0-0-0-0-0--3---3-3--3-3-3-------------------------------------|-----
 G2                                                                           

-|---------------------------------|---------------------------|--------------
-|-12-12-12-12--12-12-12-12--12-12-|-11--11-11---12--11--9--12-|--------------
-|-11-11-11-11--11-11-11-11--11-11-|-11--11-11---11--11--9--11-|--------------
-|--9--9--9--9---9--9--9--9---9--9-|-11--11-11---11--11--9---9-|--------------
-|--9--9--9--9---9--9--9--9---9--9-|--9---9--9----9---9------9-|--------------
-|--------------11-11-11-11--11-11-|--9---9--9----9---9--------|--------------
 G1+G2                        Ohh                                             

-|---------------------------------|--------------------------|---------------
-|-12-12-12-12--12-12-12-12--12-12-|-11--11-11--11--11-11--11-|---------------
-|-11-11-11-11--11-11-11-11--11-11-|-11--11-11--11--11-11--11-|---------------
-|--9--9--9--9---9--9--9--9---9--9-|-11--11-11--11--11-11--11-|---------------
-|--9--9--9--9---9--9--9--9---9--9-|--9---9--9---9---9--9---9-|---------------
-|--------------11-11-11-11--11-11-|--9---9--9---9---9--9---9-|---------------
 G1+G2                       Yeah yeah yeah                Woo                

-|---------------------------------|---------------------------|--------------
-|-12-12-12-12--12-12-12-12--12-12-|-11--11-11--11--11-11--x-x-|--------------
-|-11-11-11-11--11-11-11-11--11-11-|-11--11-11--11--11-11--x-x-|--------------
-|--9--9--9--9---9--9--9--9---9--9-|-11--11-11--11--11-11--x-x-|--------------
-|--9--9--9--9---9--9--9--9---9--9-|--9---9--9---9---9--9--x-x-|--------------
-|--------------11-11-11-11--11-11-|--9---9--9---9---9--9------|--------------
 G1+G2                                                                        

-|---------------------------------|------------0----|------------------------
-|-12-12-12-12--12-12-12-12--12-12-|-11-----------0--|------------------------
-|-11-11-11-11--11-11-11-11--11-11-|-11--------------|------------------------
-|--9--9--9--9---9--9--9--9---9--9-|-11--------------|------------------------
-|--9--9--9--9---9--9--9--9---9--9-|--9--------------|------------------------
-|--------------11-11-11-11--11-11-|--9--------------|------------------------
 G1+G2                                          G1                            

-|-0-0---0------------------|-0-0-----------------|-0-0--0------------------|-
-|-2-0---3------------------|-2-0--3--0---0-------|-2-0--3------------------|-
-|-0-0---2------------------|-0-0--2---2----2-----|-0-0--2------------------|-
-|-2-2---0------------------|-2-2--0---0----0-----|-2-2--0------------------|-
-|-0-0----------------------|-0-0-----------------|-0-0---------------------|-
-|--------------------------|---------------------|-------------------------|-
 G1        Is something wrong  she said  of course there is  'You're still a- 

-|--------------------------|---------------------|-------------------------|-
-|-5-55--5------------------|-5-55-5--------------|-5-55-5------------------|-
-|-6-66--7------------------|-6-66-7--------------|-6-66-7------------------|-
-|-7-77--7------------------|-7-77-7--------------|-7-77-7------------------|-
-|--------------------------|---------------------|-------------------------|-
-|--------------------------|---------------------|-------------------------|-
 G2                                                                           

-|--------0-0------------------------|-------2------------|-------------------
-|--------2-0-------0------0---------|-4--2--5------------|-------------------
-|--------0-0----2----2--------------|-2--2--4------------|-------------------
-|--------2-2----0----0--------------|-4--4--2------------|-------------------
-|--------0-0------------------------|-2--2---------------|-------------------
-|-----------------------------------|--------------------|-------------------
 G1 -live she said  Oh do I deserve to be?    Is that the                     

-|--------------------------|---------------------|-------------------------|-
-|-5-55--5------------------|-5-55-5--------------|-5-55-5------------------|-
-|-6-66--7------------------|-6-66-7--------------|-6-66-7------------------|-
-|-7-77--7------------------|-7-77-7--------------|-7-77-7------------------|-
-|--------------------------|---------------------|-------------------------|-
-|--------------------------|---------------------|-------------------------|-
 G2                                                                           

-|--------------2----2--------|-------2----------|--------------2----2--|-----
-|------4---2---2--2-2--------|-4--2--5----------|-4--2---------2--2-2--|-----
-|------2---2---4----4--------|-2--2--4----------|-2--2---------4----4--|-----
-|------4---4---2----2--------|-4--4--2----------|-4--4---------2----2--|-----
-|------2---2-----------------|-2--2-------------|-2--2-----------------|-----
-|----------------------------|------------------|----------------------|-----
 G1 Question?         And if so,   if so, who an - swers? Who answers?        

-|----------------------------|------------------|----------------------|-----
-|------7-7-7--7--------------|-7-77--7----------|-7--7-7-------7-------|-----
-|------8-8-8--9--------------|-8-88--9----------|-8--8-8-------9-------|-----
-|------9-9-9--9--------------|-9-99--9----------|-9--9-9-------9-------|-----
-|----------------------------|------------------|----------------------|-----
-|----------------------------|------------------|----------------------|-----
 G2                                                                           

-|-------------------------------------------------------------------|--------
-|-----------------------------------7---8-7-10-8-7------------------|--------
-|--9-9-9-9-9---------12--12/12------7--------------9----6-----------|--------
-|--9-9-9-9-9---------12--12-12------7--------------------------7----|--------
-|--7-7-7-7-7---------10--10/10------0-----------------------0-------|--------
-|-------------------------------------------------------------------|--------
 G1 I________        Oh_____________ I'm still alive   hey_______ 3x          

-|--0-----0-0-0-0-0--3---3--3--3--3--3--2---2-2-2-2-2--0---0-0-0-0-0-|--------
-|--0-----0-0-0-0-0--3---3--3--3--3--3--3---3-3-3-3-3--2---2-2-2-2-2-|--------
-|--1-----1-1-1-1-1--0---0--0--0--0--0--2---2-2-2-2-2--2---2-2-2-2-2-|--------
-|--2-----2-2-2-2-2--0---0--0--0--0--0--0---0-0-0-0-0--2---2-2-2-2-2-|--------
-|--2-----2-2-2-2-2--2---2--2--2--2--2-----------------0---0-0-0-0-0-|--------
-|--0-----0-0-0-0-0--3---3--3--3--3--3-------------------------------|--------
 G2                                                                           

-|-------------------------------------------------------------------|--------
-|-----------------------------------7---8-7-10-8-7------------------|--------
-|--9-9-9-9-9---------12--12/12------7--------------9----6-----------|--------
-|--9-9-9-9-9---------12--12-12------7--------------------------7----|--------
-|--7-7-7-7-7---------10--10/10------0-----------------------0-------|--------
-|-------------------------------------------------------------------|--------
 G1 I_____    Oh__   I'm   still    a - live          yea yea yea yea yea ya  

-|--0-----0-0-0-0-0--3---3--3--3--3--3--2---2-2-2-2-2----------------|--------
-|--0-----0-0-0-0-0--3---3--3--3--3--3--3---3-3-3-3-3--2---2-2-2-2-2-|--------
-|--1-----1-1-1-1-1--0---0--0--0--0--0--2---2-2-2-2-2--2---2-2-2-2-2-|--------
-|--2-----2-2-2-2-2--0---0--0--0--0--0--0---0-0-0-0-0--2---2-2-2-2-2-|--------
-|--2-----2-2-2-2-2--2---2--2--2--2--2-----------------0---0-0-0-0-0-|--------
-|--0-----0-0-0-0-0--3---3--3--3--3--3-------------------------------|--------
 G2                                                                           

-|-------------------------------------------------------|--------------------
-|-9------------------9--9--9-----8-----------8--8--8--8-|--------------------
-|-9------------------9--9--9-----0-----------0--0--0--0-|--------------------
-|-9------------------9--9--9-----9-----------9--9--9--9-|--------------------
-|-7------------------7--7--7----10----------10-10-10-10-|--------------------
-|-------------------------------------------------------|--------------------
 Solo Rhythm, G1 





Calificar esta versión:
Aviso: Este fichero es trabajo propio de su transcriptor y representa su interpretación personal de la canción. El material contenido en esta página es para exclusivo uso privado, por lo que se prohibe su reproducción o retransmisión, así como su uso para fines comerciales.
Más versiones de Alive, Pearl Jam
Alive
acordes
Alive
tablatura
Alive
video guitarra
Descubre más canciones de Pearl Jam