Reloj, Pasteles Verdes (tablatura)

Autor: Anónimo | 28427 visualizaciones

Intro:

    F         Dm    Am        Gm-C7
e|---8--6-5-6-8-10-10--5-5-------5-6-8-----|
B|-------------------------8-6-8-----------|
G|-5---------------------------------------|
D|-----------------------------------------|
A|-----------------------------------------|
E|-----------------------------------------|

   F         Gm   Am       Gm-C7
e|------------------5-5-------5-6-8--------|
B|-6-6-5---5-6-8-8------8-6-8--------------|
G|-------7---------------------------------|
D|-----------------------------------------|
A|-----------------------------------------|
E|-----------------------------------------|

   F                  Dm
Reloj, no marques las horas
 Am                 Gm   C7
porque voy a enloquecer
   F              Gm
ella se ira para siempre
  Am                  Gm   C7
cuando amanezca otra vez.

    F                  Dm
No más, nos queda esta noche
 Am                 Gm   C7
para vivir nuestro amor
F                  Gm
y tu tic tac me recuerda
Am                 Gm   C7
mi irremediable dolor.

   F              Am
Reloj detén tu camino
 Gm        C7       F   F7
porque mi vida se apaga
Bb                        F         Dm
ella es la estrella que alumbra mi ser
Gm          C7         F    F7
yo sin su amor no soy nada.

   F                   Am
Detén el tiempo en tus manos
 Gm          C7       F      F7
haz de esta noche perpetua
Bb                 F      Dm
para que nunca se vaya de mi
Gm        C7       F
para que nunca amanezca.

LOS TONOS DE LA FORMA 8(6) SIGNIFICA QUE ES EN EL TRASTE 8, 6 VECES. PARA
10(n)SIGNIFICA QUE ES EN EL TRASTE 10 PERO NO SE CUANTAS VECES, PERO LE
PUEDEN DAR RITMO CON ESCUCHAR LA CANCIÓN. PM (NOTAS APAGADAS).

  PM-------------------------------------------------------------------
    F                     Dm     Am                   Gm  C7
e|---8(6)-6(2)-5(4)-6(2)-8(2)-10(n)--5(6)----------------5(2)-6(6)-8(6)-|
B|----------------------------------------8(2)-6(4)-8(2)----------------|
G|-5--------------------------------------------------------------------|
D|----------------------------------------------------------------------|
A|----------------------------------------------------------------------|
E|----------------------------------------------------------------------|

   F         Gm   Am       Gm-C7
e|------------------5-5-------5-6-8--------|
B|-6-6-5---5-6-8-8------8-6-8--------------|
G|-------7---------------------------------|
D|-----------------------------------------|
A|-----------------------------------------|
E|-----------------------------------------|

   F              Am
Reloj detén tu camino
 Gm        C7       F   F7
porque mi vida se apaga
Bb                        F         Dm
ella es la estrella que alumbra mi ser
Gm          C7         F    F7
yo sin su amor no soy nada.

   F                   Am
Detén el tiempo en tus manos
 Gm          C7       F      F7
haz de esta noche perpetua
Bb                 F      Dm
para que nunca se vaya de mi
Gm        C7       F     Dm
para que nunca amanezca
Gm        C7       F     Dm
para que nunca amanezca.
Calificar esta versión:
Aviso: Este fichero es trabajo propio de su transcriptor y representa su interpretación personal de la canción. El material contenido en esta página es para exclusivo uso privado, por lo que se prohibe su reproducción o retransmisión, así como su uso para fines comerciales.
Más versiones de Reloj, Pasteles Verdes
Reloj
acordes
Reloj
tablatura
Descubre más canciones de Pasteles Verdes