Cowboys From Hell, Pantera (tablatura) (ver 3)

Autor: jato | 30575 visualizaciones



          
                                             pantera:
                     cowboys from hell





6----------0------|x46











1---------------------------------------------------|
2---------------------------------------------------|
3---------------------------------------------------|
4-------5-----5-----7--5--7--5--8--5--7--5--8/9-----|x3
5----7-----7----------------------------------------|
6---------------------------------------------------|



1---------------------------------------------------|
2---------------------------------------------------|
3---------------------------------------------------|
4-------5-----5----7--5--7--5-----------------------|
5----7-----7----------------------------------------|
6-------------------------------6-5---3--0----------|




1---------------------------------------------------|
2---------------------------------------------------|
3---------------------------------------------------|
4---------------------------------------------------|
5-----------0-----0-----1-----0------1/2------------|
6--0-3-0-3-----3-----3------------------------------|x3







Calificar esta versión:
Aviso: Este fichero es trabajo propio de su transcriptor y representa su interpretación personal de la canción. El material contenido en esta página es para exclusivo uso privado, por lo que se prohibe su reproducción o retransmisión, así como su uso para fines comerciales.
Más versiones de Cowboys From Hell, Pantera
Cowboys From Hell
tablatura
Cowboys From Hell (ver 2)
tablatura
Cowboys From Hell (ver 3)
tablatura
Cowboys From Hell (ver 4)
tablatura
Descubre más canciones de Pantera