La Rubia Y El Demonio, Panteón Rococó (acordes)

Autor: Anónimo | 45873 visualizaciones

aambcc9g


  
 Transcripcion realizada por Jose Miguel [Mike] 
 a peticion especial de Los Borbotones

Intro: 
                 G    C9

E------------3---3----0-----
A---3--2--0------2----3-----
D----------------0----2-----
G----------------0----0-----
B----------------3----3-----
e----------------3----3-----

Aqui suena mas chido si uno arpegia y el otro rasguea

G                     C9
El demonio ha vendido su alma,
G                                C9
por las piernas de una rubia que trabaja,
G                            C9
que baila y se desnuda en la concordia,
G                      C9
un lugar que cierra en las mañanas.
C                      Am
Y el se sienta a verla bailar,
C                        A
toma un trago y luego se va.

Nota: a partir de aqui con cejilla suena mas chido
    
G - C x 4

G                     C9
El demonio ha vendido su alma,
G                                C9
por las piernas de una rubia que trabaja,
G                            C9
que baila y se desnuda en la concordia,
G                      C9
un lugar que cierra en las mañanas.
C                      Am
Y el se sienta a verla bailar,
C                        A  
toma un trago y luego se va.
C                      Am
Y el se sienta a verla bailar,
C                        A      B     C
toma un trago y luego se va.

    G - C x 4

El demonio le a comprado un regalo
para que ella por siempre se enamore de el
pero ella solo quiere su dinero
sexo seguro y olvidar lo que´paso.
Y el se sienta a verla bailar,
toma un trago y luego se va.
Y el se sienta a verla bailar,
toma un trago y luego se va.

    G - C x 4

    G            C9
Mira a la rubia mira al demonio
    G            C9
mira a los dos bailar
    G            C9
Mira a la rubia mira al demonio
    G            C9
mira a los dos bailar

Mira a la rubia mira al demonio
mira a los dos bailar
Mira a la rubia mira al demonio
mira a los dos bailar

C                      Am
Y el se sienta y a ver un private
C                      A
toma un trago y dice ¡¡Ay guey!!
C                      Am
Y el se sienta y quiere agarrar
C                        A      B     C
toma un trago y lo echan del bar

    G - C x 4 

    G - C x 4       <---- con mas ritmo mientras 
                     la otra guitarra lo acompaña 
                     con este requinto:

E----------------------------------------   x2
A---5-5-5--7-7-7-7--9-9-9--10-10-10-10---
D----------------------------------------
G----------------------------------------
B----------------------------------------
e----------------------------------------


E----------------------------------------   x2
A----------------------------------------
D--------------------------5-5-5-5-------
G---7-7-7--5-5-5-5--4-4-4----------------
B----------------------------------------
e----------------------------------------

Fin: C   G 


    G   C9   C   B   

E---3----0---3---7----
A---2----3---3---9----
D---0----2---2---9----
G---0----0---0---8----
B---3----3---1---7----
e---3----3---0---7----





Calificar esta versión:
Aviso: Este fichero es trabajo propio de su transcriptor y representa su interpretación personal de la canción. El material contenido en esta página es para exclusivo uso privado, por lo que se prohibe su reproducción o retransmisión, así como su uso para fines comerciales.
Más versiones de La Rubia Y El Demonio, Panteón Rococó
La Rubia Y El Demonio
acordes
La Rubia Y El Demonio (ver 2)
acordes
La Rubia Y El Demonio (ver 3)
acordes
La Rubia Y El Demonio
tablatura
La Rubia Y El Demonio (ver 2)
tablatura
Descubre más canciones de Panteón Rococó