El Gran Mc Gee, Panda (bajo)

Autor: Anónimo | 30213 visualizaciones

G----------------------------
D----------------------------
A--------4-444-1-111-2-222-1-  x4
E--2-222---------------------


“Fállalo bien...”
G----------------------------
D----------------------------
A--------4-444-1-111-2-222-1-  x4
E--2-222---------------------


“Pide dinero para comprar...”
G------------------------
D------------------------
A-------4444-1111-2222-1-  x4
E--2222------------------


G-----------------
D-----------------
A—2-1-2-1-2-1-2-1-  x4
E-----------------


“Gordo se fue...”
G-------------------------
D-------------------------
A-------4444-6-666-44-6-4-
E--2222-------------------

                                X2
G-------------------------
D-------------------------
A-------4-444-2-22-4-44-2-
E--2222-------------------


G----------------------------
D----------------------------
A--------4-444-1-111-2-222-1-  x4
E--2-222---------------------


“Bandera es...”
G----------------------------
D----------------------------
A--------4-444-1-111-2-222-1-  x4
E--2-222---------------------


“Conejo botas para enseñar...”
G-------------------------
D-------------------------
A--------4444-1111-2222-1-  x4
E--2222-------------------


G-----------------
D-----------------
A—2-1-2-1-2-1-2-1-  x4
E-----------------


“Gordo se fue...”
G-------------------------
D-------------------------
A-------4444-6-666-44-6-4-
E--2222-------------------

                                X2
G-------------------------
D-------------------------
A-------4-444-2-22-4-44-2-
E--2222-------------------


G--------------------
D--------------------
A------1-2-222-1-222-  x2
E--444---------------


G---------------------
D----------------4----
A------1-2-222-46-641-
E--444----------------


G--------------------
D-----------99999999-
A--44444444----------
E--------------------


G----------------------------
D----------------------------
A--------4-444-1-111-2-222-1-  x4
E--2-222---------------------


G---------------------------
D---------------------------
A--4-2-4-2-4-2-4-2-66666666-
E---------------------------


“Gordo se fue...”
G-------------------------
D-------------------------
A-------6666-8-888-66-8-6-
E--4444-------------------

                                X3
G-------------------------
D-------------------------
A-------6-666-4-44-6-66-4-
E--4444-------------------


G-------------------------
D-------------------------
A-------6666-8-888-66-8-6-
E--4444-------------------


G------------------------
D------------------------
A-------6-666-4----------
E--4444----------------4-


Comentarios:
Luchia
nonos_34@hotmail.com
Calificar esta versión:
Aviso: Este fichero es trabajo propio de su transcriptor y representa su interpretación personal de la canción. El material contenido en esta página es para exclusivo uso privado, por lo que se prohibe su reproducción o retransmisión, así como su uso para fines comerciales.
Más versiones de El Gran Mc Gee, Panda
El Gran Mc Gee
tablatura
El Gran Mc Gee
bajo
Descubre más canciones de Panda