El Cuello Perfecto, Panda (bajo) (ver 2)

Autor: Anónimo | 16287 visualizaciones

A petición de los amigos de youtube...
Aquí les traigo el tab del bajo de esta buena canción
http://www.youtube.com/watch?v=7iZLq49y64M

Simbología
/       slide    (puede ser hacia arriba o acia abajo , depende)
/-      Slide arriba y abajo
p       pull off
h       hammer on
~       dejar sonar

INTRO

Gb-----------------------------------------------------------
Db--9~~/-----7-9----7-9----7----------5h7-5-4-5-4------------
Ab---------9------9------9------5~~/---------------5---------
Eb-----------------------------------------------------------

Gb-----------------------------------------------------------
Db-----------------------------------------------------------
Ab------------------------------------9-10-12--10-9-10-9-----
Eb--3~~/7-7-7-3~/15-15-15--10--10--10--------------------10--

ESTROFAS I y II

Gb-----------------------------------------------------------
Db--9~~/-----7-9----7-9----7----------5h7-5-4-5-4------------
Ab---------9------9------9------5~~/---------------5--------- x2
Eb-----------------------------------------------------------

Gb-----------------------------------------------------------
Db-----------------------------------------------------------
Ab------------------------------------7p5-------7p5----------
Eb-0--0-0-0--5--5-5-5--0--0-0-0--5--5-----7-5-5-----7-5------

PUENTE

Gb----------------
Db----------------
Ab----------------
Eb-3-----7-7--5---

CORO

Gb-------------------------------------------------------------------
Db-------------------------------------------------------------------
Ab-2-2-2-2-2-2-2-4-5-5-5-5-5-5-5-5-----------------------------------
Eb---------------------------------3-3-3-3-3-3-3-3-5-5-5-5-5-5-5-5---

Gb-------------------------------------------------------------------
Db-------------------------------------------------------------------
Ab-2-2-2-2-2-2-2-4-5-5-5-5-5-5-5-5-----------------5-5-5-5-----------
Eb---------------------------------3-3-3-3-3-3-3-3---------5-5-5-5-3~

INTRO

Gb-----------------------------------------------------------
Db--9~~/-----7-9----7-9----7----------5h7-5-4-5-4------------
Ab---------9------9------9------5~~/---------------5---------
Eb-----------------------------------------------------------

Gb-----------------------------------------------------------
Db-----------------------------------------------------------
Ab------------------------------------9-10-12--10-9-10-9-----
Eb--3~~/7-7-7-3~/15-15-15--10--10--10--------------------10--

ESTROFA III

Gb--------|--------------------------------------------------
Db--9~~/--|------------------*SILENCIO*----------------------
Ab--------|-------------------------------------------------- x2
Eb--------|--------------------------------------------------

Gb-----------------------------------------------------------
Db-----------------------------------------------------------
Ab----------------------------------------7p5-------7p5------
Eb-/0--0--0-0-0--5--5-5-5--0--0-0-0--5--5-----7-5-5-----7-5--

ESTROFA IV (igual que I y II)

Gb-----------------------------------------------------------
Db--9~~/-----7-9----7-9----7----------5h7-5-4-5-4------------
Ab---------9------9------9------5~~/---------------5--------- x2
Eb-----------------------------------------------------------

Gb-----------------------------------------------------------
Db-----------------------------------------------------------
Ab------------------------------------7p5-------7p5----------
Eb-0--0-0-0--5--5-5-5--0--0-0-0--5--5-----7-5-5-----7-5------

CORO

Gb-------------------------------------------------------------------
Db-------------------------------------------------------------------
Ab-2-2-2-2-2-2-2-4-5-5-5-5-5-5-5-5-----------------------------------
Eb---------------------------------3-3-3-3-3-3-3-3-5-5-5-5-5-5-5-5---

Gb-------------------------------------------------------------------
Db-------------------------------------------------------------------
Ab-2-2-2-2-2-2-2-4-5-5-5-5-5-5-5-5-----------------5-5-5-5-----------
Eb---------------------------------3-3-3-3-3-3-3-3---------5-5-5-5-3~

SOLO


Gb-----------------------------------------------------------
Db-------------7-5H7P5---------------------------------------
Ab---------------------7-------------------------------------
Eb(3)~~--7-7-5------------3~~~/-7-7-5------------------------

Gb-----------------------------------------------------------
Db---------------5H7-----------------------------------------
Ab-----------------------------------------------------------
Eb-0~~~--7-7-5------------0~~~--7-7-5------------------------

Gb-----------------------------------------------------------
Db-----------------------------------------------------------
Ab-----------------------------------------------------------
Eb--3-3-3-3--3-3-3-3----7-7-7-7--5-5-5-5---------------------

Gb-----------------------------------------------------------
Db-----------------------------------------------------------
Ab-----------------------------------------------------------
Eb--3-3-3-3/15-15-15-15/----7-7-7-7--5-5-5-5-----------------

Gb-----------------------------------------------------------
Db-----------------------------------------------------------
Ab-----------------------------------------------------------
Eb-0~~~~~~~~~~~~----7-7-7-7--5-5-5-5-------------------------

Gb-----------------------------------------------------------
Db-----------------------------------------------------------
Ab-----------------------------------------------------------
Eb/0-0-0-0-0--0-0-0-0----7-7-7-7--5-5-5----------------------


ENJOY!!

*_-_~ISRAMAN~_-_*
Calificar esta versión:
Aviso: Este fichero es trabajo propio de su transcriptor y representa su interpretación personal de la canción. El material contenido en esta página es para exclusivo uso privado, por lo que se prohibe su reproducción o retransmisión, así como su uso para fines comerciales.
Más versiones de El Cuello Perfecto, Panda
El Cuello Perfecto
acordes
El Cuello Perfecto
tablatura
El Cuello Perfecto
bajo
El Cuello Perfecto (ver 2)
bajo
Descubre más canciones de Panda