El Chango De Los Dos Platanos, Panda (tablatura)

Autor: Anónimo | 32116 visualizaciones

Intro
e|-------------------------------
B|-------------------------------
G|---6-6-6-6-6-6-6-6-6-6-6-6-6---
D|-------------------------------
A|-------------------------------
E|-------------------------------

e|-------------------------------
B|-------------------------------
G|-6-6-6-8-8-8-10-10-10-11/10----
D|-------------------------------
A|-4-4-4-6-6-6-8--8--8---9/8----- Se toca 4 veces
E|-------------------------------

Verso

e|-------------------------------------
B|-------------------------------------
G|-------------------------------------
D|-6x-6-6x-----------------------------
A|-4x-4-4x---6x-6-6x---4x-4-4x---8--6--
E|-----------4x-4-4x---2x-2-2x---6--4--

Pero no, no lo deben de saber...
e|-------------------------------
B|-------------------------------
G|-------------------------------
D|-------------------------------
A|-4-4-4-4-4--8-8--6-6-----------
E|-2-2-2-2-2--6-6--4-4--(3 veces)

Por favor esque ellas..
e|-------------------------------
B|-------------------------------
G|-------------------------------
D|-------------------------------
A|-4-4-4-4--6-6-6-666------------
E|-2-2-2-2--4-4-4-444------------

CORO:

Yo no soy asi, mas no soy feliz....
e|-------------------------------------
B|-------------------------------------
G|-------------------------------------
D|--6-6-6-6----------------------------
A|--4-4-4-4--4-4-4-4--8-8-8-8--6-6-6-6-
E|-----------2-2-2-2--6-6-6-6--4-4-4-4-(2 veces)

Lo que yo podria pedir
e|-------------------------------
B|-------------------------------
G|-------------------------------
D|-------------------------------
A|-4x-4-4-4-4---6x-6-6-6-6-------
E|-2x-2-2-2-2---4x-4-4-4-4-------

Y asi segun yo es la rola, se escucha muy bien cuando la tocas
el numero de pisadas no es exactamente el mismo pero tu lo 
puedes acomodar conforme a la rola.

Tabulado por Arturo Guzman    a_plastico@hotmail.com/guz4@hotmail.com
Calificar esta versión:
Aviso: Este fichero es trabajo propio de su transcriptor y representa su interpretación personal de la canción. El material contenido en esta página es para exclusivo uso privado, por lo que se prohibe su reproducción o retransmisión, así como su uso para fines comerciales.
Más versiones de El Chango De Los Dos Platanos, Panda
El Chango De Los Dos Platanos
acordes
El Chango De Los Dos Platanos (ver 2)
acordes
El Chango De Los Dos Platanos
tablatura
Descubre más canciones de Panda