Del Rapto Y Otros Pormenores, Panda (acordes)

Autor: Anónimo | 30360 visualizaciones

asosmbcsosddsosmfsos
aqui otra cancion de panda
esta cancion se escucha mejor si la tocan en quintas
esta es la que mas me gusto del disco para mi la mejor
bueno les dejo los acordes aver si les ayuda en algo
:D
esta en afinacion normal
cualkiero duda mi correo es
[six_noc@hotmail.com]
[Evelyn te amo]


INTRO:

e------------------------------------
B------------------------------------
G-----6-4-3-----3-----3-4-6---------- [X2]
D-1/4-------6-4---6-4----------------
A------------------------------------
E------------------------------------

B          C#          D#m        F#
No importa ya mi colección de libros
         B         C#          D#m F#
Ya no importa mi oscura juventud
B        C#     D#m     F#
Ya no importa cuantos amigos tenga
B        C#     D#m   F#
Ya no importan mis anhelos y sueños
F#               A#m           B
Vamos a hacer buena la invitación
 D#m                   C#
Desaparéceme estaré mejor
F#               A#m           B
Vamos a hacer buena la invitación
 D#m                          C#         B
Toda la angustia y todo el terror, termino

e------------------------------------
B------------------------------------
G-----6-4-3-----3-----3-4-6---------- [X2]
D---4-------6-4---6-4----------------
A------------------------------------
E------------------------------------

B            C#        D#m   F#
No importan ya tus joyas ni tus vestidos
B                   C#          D#m F#
Ya no importa tu supuesta madurez
B        C#     D#m     F#
Ya no importa cuantos amantes tengas
B        C#     D#m
Ya no importan tus sonrisas falsas
F#               A#m           B
Vamos a hacer buena la invitación
D#m                   C#
Desaparéceme estaré mejor
F#               A#m           B
Vamos a hacer buena la invitación
D#m                            C#        B
Toda la angustia y todo el terror, termino

e------------------------------------
B------------------------------------
G-----6-4-3-----3-----3-4-6---------- [X4]
D---4-------6-4---6-4----------------
A------------------------------------
E------------------------------------

todo eso termino

todo eso termino
Calificar esta versión:
Aviso: Este fichero es trabajo propio de su transcriptor y representa su interpretación personal de la canción. El material contenido en esta página es para exclusivo uso privado, por lo que se prohibe su reproducción o retransmisión, así como su uso para fines comerciales.
Más versiones de Del Rapto Y Otros Pormenores, Panda
Del Rapto Y Otros Pormenores
acordes
Del Rapto Y Otros Pormenores
tablatura
Descubre más canciones de Panda