Cuando No Es Como Deberia Ser, Panda (tablatura) (ver 4)

Autor: cimio | 14968 visualizaciones

Cuando no es como debería de ser.
Afinada en bemol.
  Guitarra 1
eb|---------------------------------------------------------------|
Bb|-----8-----8------8-----8------8-----8--6--5-------------------|
Gb|-4-5---4-5----4-5---4-5----4-5---4-5--------7-5--4~------------|
Db|---------------------------------------------------------------|
Ab|---------------------------------------------------------------|
Eb|---------------------------------------------------------------|
  Guitarra 2                                                       
eb|---------------------------------------------------------------|
Bb|---------------------------------------------------------------|
Gb|-2-2-2-2-2-2----------------------------5-5-5-5-4-4-4-4--------|
Db|-2-2-2-2-2-2--3-3-3-3-3-3--5-5-5-5-5-5--5-5-5-5-4-4-4-4--------|
Ab|-0-0-0-0-0-0--3-3-3-3-3-3--5-5-5-5-5-5--3-3-3-3-2-2-2-2--------|
Eb|--------------1-1-1-1-1-1--3-3-3-3-3-3-------------------------|

  Guitarra 1
eb|---------------------------------------------------------------|
Bb|-----8-----8------8-----8------8-----8--6--5-------------------|
Gb|-4-5---4-5----4-5---4-5----4-5---4-5--------7-5--4~------------|
Db|---------------------------------------------------------------|
Ab|---------------------------------------------------------------|
Eb|---------------------------------------------------------------|

  Guitarra 2                                                       
eb|---------------------------------------------------------------|
Bb|---------------------------------------------------------------|
Gb|-2-2-2-2-2-2----------------------------5-5-5-5-4-4-4-4-2~-----|
Db|-2-2-2-2-2-2--3-3-3-3-3-3--5-5-5-5-5-5--5-5-5-5-4-4-4-4-2~-----|
Ab|-0-0-0-0-0-0--3-3-3-3-3-3--5-5-5-5-5-5--3-3-3-3-2-2-2-2-0~-----|
Eb|--------------1-1-1-1-1-1--3-3-3-3-3-3-------------------------|
(Continua verso, solo bajo y batería).
Después, creo, no estoy nada seguro, va algo así. Chequen los tiempos.
Guitarra 1
eb|----------------------------------------------------------------------|
Bb|-9-9-9-9-9-9-9-10-10-10-10-7-9-9-9-9-9-9/12-12-12-13-13-13-12-13-13/--|
Gb|-9-9-9-7-7-9-9-9--9--9--9--9-9-9-9-9-9-9/11-11-11-12-12-12-12-12-12/--|
Db|----------------------------------------------------------------------|
Ab|----------------------------------------------------------------------|
Eb|--------------------------------------------------------------------|x2
    ~~~~~~~~~~~~~~~~~~~~~~~~~~~~~~~~~~~~~~~~~~~~~~~~~~~~~~~~~~~~~~~~~~~
Coro: ?Tal vez así es mejor?
Guitarra 1
eb|------15-------15-------15-------15-------15-------15-13-12---------|
Bb|12-13----12-13----12-13----12-13----12-13----12-13----------15-13-12|
Gb|--------------------------------------------------------------------|
Db|--------------------------------------------------------------------|
Ab|--------------------------------------------------------------------|
Eb|--------------------------------------------------------------------|
Guitarra 2
eb|---------------------------------------------------------------|
Bb|---------------------------------------------------------------|
Gb|-2-2-2-2-2-2----------------------------5-5-5-5-4-4-4-4-2------|
Db|-2-2-2-2-2-2--3-3-3-3-3-3--5-5-5-5-5-5--5-5-5-5-4-4-4-4-2------|
Ab|-0-0-0-0-0-0--3-3-3-3-3-3--5-5-5-5-5-5--3-3-3-3-2-2-2-2-0------|
Eb|--------------1-1-1-1-1-1--3-3-3-3-3-3-------------------------|

Guitarra 1
eb|------15-------15-------15-------15-------15-------15/17-15-13-12-13|
Bb|12-13----12-13----12-13----12-13----12-13----12-13------------------|
Gb|--------------------------------------------------------------------|
Db|--------------------------------------------------------------------|
Ab|--------------------------------------------------------------------|
Eb|--------------------------------------------------------------------|
Guitarra 2
eb|---------------------------------------------------------------|
Bb|---------------------------------------------------------------|
Gb|-2-2-2-2-2-2----------------------------5-5-5-4-5-4-4-4-2-4-2--|
Db|-2-2-2-2-2-2--3-3-3-3-3-3--5-5-5-5-5-5--5-5-5-4-5-4-4-4-2-4-2--|
Ab|-0-0-0-0-0-0--3-3-3-3-3-3--5-5-5-5-5-5--3-3-3-2-3-2-2-2-0-2-0--|
Eb|--------------1-1-1-1-1-1--3-3-3-3-3-3-------------------------|

Guitarra 1
eb|------15-------15-------15-------15-------15-------15-13-12---------|
Bb|12-13----12-13----12-13----12-13----12-13----12-13----------15-13-12|
Gb|--------------------------------------------------------------------|
Db|--------------------------------------------------------------------|
Ab|--------------------------------------------------------------------|
Eb|--------------------------------------------------------------------|
Guitarra 2
eb|---------------------------------------------------------------|
Bb|---------------------------------------------------------------|
Gb|-2-2-2-2-2-2----------------------------5-5-5-5-4-4-4-4-2------|
Db|-2-2-2-2-2-2--3-3-3-3-3-3--5-5-5-5-5-5--5-5-5-5-4-4-4-4-2------|
Ab|-0-0-0-0-0-0--3-3-3-3-3-3--5-5-5-5-5-5--3-3-3-3-2-2-2-2-0------|
Eb|--------------1-1-1-1-1-1--3-3-3-3-3-3-------------------------|

Guitarra 1
eb|------15-------15-------15-------15-------15-------15/17-15-13-12-13---|
Bb|12-13----12-13----12-13----12-13----12-13----12-13------------------13~|
Gb|-----------------------------------------------------------------------|
Db|-----------------------------------------------------------------------|
Ab|-----------------------------------------------------------------------|
Eb|-----------------------------------------------------------------------|
Guitarra 2
eb|---------------------------------------------------------------|
Bb|---------------------------------------------------------------|
Gb|-2-2-2-2-2-2----------------------------5-5-5-5-4-4-4-4-2------|
Db|-2-2-2-2-2-2--3-3-3-3-3-3--5-5-5-5-5-5--5-5-5-5-4-4-4-4-2------|
Ab|-0-0-0-0-0-0--3-3-3-3-3-3--5-5-5-5-5-5--3-3-3-3-2-2-2-2-0------|
Eb|--------------1-1-1-1-1-1--3-3-3-3-3-3-------------------------|
(Sigue verso, solo bajo y batería).
Guitarra 1
eb|----------------------------------------------------------------------|
Bb|-9-9-9-9-9-9-9-10-10-10-10-7-9-9-9-9-9-9/12-12-12-13-13-13-12-13-13/--|
Gb|-9-9-9-7-7-9-9-9--9--9--9--9-9-9-9-9-9-9/11-11-11-12-12-12-12-12-12/--|
Db|----------------------------------------------------------------------|
Ab|----------------------------------------------------------------------|
Eb|--------------------------------------------------------------------|x2
    ~~~~~~~~~~~~~~~~~~~~~~~~~~~~~~~~~~~~~~~~~~~~~~~~~~~~~~~~~~~~~~~~~~~
Se repite el coro.





Después sigue: 
En vez de percusive mute(x), solo dejen sonar un poco y después apaguen, bueno al momento de tocarlo lo notaran.
Guitarra 2
eb|---------------------------------------------------------------|
Bb|---------------------------------------------------------------|
Gb|---------------------------------------------------------------|
Db|-3-x-3-x-3-3-x-2-x-2-x-2-2-x-3-x-3-x-3-3-x-5-x-5-x-5-5-x/------|
Ab|-3-x-3-x-3-3-x-2-x-2-x-2-2-x-3-x-3-x-3-3-x-5-x-5-x-5-5-x/------|
Eb|-1-x-1-x-1-1-x-0-x-0-x-0-0-x-1-x-1-x-1-1-x-3-x-3-x-3-3-x/------|x4

Guitarra 2
eb|--------------------------------------------------------------|
Bb|--------------------------------------------------------------|
Gb|--------------------------------------------------------------|
Db|-7-x-7-x-7-7-x/3-x-3-x-3-3-x/5-x-5-x-5-5-x/10x10x10x/9-x9-x/--|
Ab|-7-x-7-x-7-7-x/3-x-3-x-3-3-x/5-x-5-x-5-5-x/10x10x10x/9-x9-x/--|
Eb|-5-x-5-x-5-5-x/1-x-1-x-1-1-x/3-x-3-x-3-3-x/8-x8-x8-x/7-x7-x/--|

eb|--------------------------------------------------------------|
Bb|--------------------------------------------------------------|
Gb|--------------------------------------------------------------|
Db|-7-x-7-x-7-7-x/3-x-3-x-3-3-x/5-5-5-x-5-5-x/1010101010---------|
Ab|-7-x-7-x-7-7-x/3-x-3-x-3-3-x/5-5-5-x-5-5-x/1010101010---------|
Eb|-5-x-5-x-5-5-x/1-x-1-x-1-1-x/3-3-3-x-3-3-x/8-8-8-8-8----------|
Se toca otra vez el coro y después cambia un poco
Guitarra 1
eb|------15-------15-------15-------15-------15-------15-13-12---------|
Bb|12-13----12-13----12-13----12-13----12-13----12-13----------15-13-12|
Gb|--------------------------------------------------------------------|
Db|--------------------------------------------------------------------|
Ab|--------------------------------------------------------------------|
Eb|--------------------------------------------------------------------|
Guitarra 2
eb|---------------------------------------------------------------|
Bb|---------------------------------------------------------------|
Gb|-2-2-2-2-2-2----------------------------5-5-5-5-4-4-4-4-2------|
Db|-2-2-2-2-2-2--3-3-3-3-3-3--5-5-5-5-5-5--5-5-5-5-4-4-4-4-2------|
Ab|-0-0-0-0-0-0--3-3-3-3-3-3--5-5-5-5-5-5--3-3-3-3-2-2-2-2-0------|
Eb|--------------1-1-1-1-1-1--3-3-3-3-3-3-------------------------|

Guitarra 1
eb|------15-------15-------15-------15-------15-------15/17-15-13-12-13---|
Bb|12-13----12-13----12-13----12-13----12-13----12-13------------------13~|
Gb|-----------------------------------------------------------------------|
Db|-----------------------------------------------------------------------|
Ab|-----------------------------------------------------------------------|
Eb|-----------------------------------------------------------------------|
Guitarra 2
eb|---------------------------------------------------------------|
Bb|---------------------------------------------------------------|
Gb|-2-2-2-2-2-2----------------------------5-5-5-5-4-4-4-4-2~-----|
Db|-2-2-2-2-2-2--3-3-3-3-3-3--5-5-5-5-5-5--5-5-5-5-4-4-4-4-2~-----|
Ab|-0-0-0-0-0-0--3-3-3-3-3-3--5-5-5-5-5-5--3-3-3-3-2-2-2-2-0~-----|
Eb|--------------1-1-1-1-1-1--3-3-3-3-3-3-------------------------|
Bueno, pues esto es lo que pude sacar. Ojala les guste XD lml.
Calificar esta versión:
Aviso: Este fichero es trabajo propio de su transcriptor y representa su interpretación personal de la canción. El material contenido en esta página es para exclusivo uso privado, por lo que se prohibe su reproducción o retransmisión, así como su uso para fines comerciales.