Cita En El Quirofano, Panda (tablatura) (ver 6)

Autor: interslash | 16124 visualizaciones

bueno chavos aqui les trigo la tablatura de cita en el quirofano de panda!!!

Guitarra 1: Pepe
Guitarra 2: Artur

Intro
Guitarra 1
e|------------------------------------|
B|------------------------------------|
G|------------------------------------|
D|888888-88-88-88-88-888888-88-88-88--|
A|666666-66-66-66-66-666666-66-66-66--|
E|444444-44-44-44-44-444444-44-44-44--|x1
pm......             ......

Intro parte 2
Ambas guitarras
e|---------------------------------------------------------------------------------|
B|---------------------------------------------------------------------------------|
G|---------------------------------------------------------------------------------|
D|88888-88-88-88-88-888888-88-88-88-88-666666-66-66-66-66-6666666-66-66-88-88888-8-|
A|66666-66-66-66-66-666666-66-66-66-66-333333-33-33-33-33-4444444-44-44-66-66666-6-|
E|44444-44-44-44-44----------------------------------------------------------------|x2
  .....             ......             ......             .......          .....

Verso 1
Ambas guitarras
e|--------------------------------------|
b|--------------------------------------|
g|----------88888888----------6666-8888-|
d|-66666666-88888888-33333333-6666-8888-|
a|-66666666-66666666-33333333-4444-6666-|
E|-44444444----------11111111-----------|x2

e|--------------------------------------|
b|--------------------------------------|
g|--------------------------------------|
d|----------88888888----------6666-8888-|
a|-66666666-66666666-33333333-4444-6666-|
E|-44444444----------11111111-----------|x1
   ........ ........ ........ .... ....

e|----------------------------------------------------|
b|----------------------------------------------------|
g|----------------------------6666-8888-66666666------|
d|----------88888888----------6666-8888-66666666-6666-|
a|-66666666-66666666-33333333-4444-6666-44444444-6666-|
E|-44444444----------11111111--------------------4444-|x1
   ........ ........ ........
 
Coro
Guitarra 2
e|---------|   e|---------|   e|---------|   e|-----------------|  \  
b|---------|   b|---------|   b|---------|   b|-----------------|   \
g|-----5---|   g|-----5---|   g|-----5---|   g|-----5-------5---|    |
d|---6---6-|   d|---6---6-|   d|---6---6-|   d|---6---6---6---6-|    |Dos veces todo 
a|---------|   a|-6-------|   a|-3-------|   a|-4-------6-------|   /
E|-4-------|x2 E|---------|x2 E|---------|X2 E|-----------------|X1/

*=Intro parte 2 otra vez, igual=*

Verso 2
Guitarra 2
e|-------------------------------------------------------------------------------------------------------|
b|-------------------------------------------------------------------------------------------------------|
g|----------------------------------------------------------------------------------------12-12-12-12-12-|
d|-8---8---5---5---8---8---0---0---1---1---0---0---3---3---5---5---5---5------------------x--x--x--x--x--|
a|---6---6---6---6---6---6---1---1---1---1---1---1---1---1---3---3---6---6-11-11-11-11-11-10-10-10-10-10-|
E|-------------------------------------------------------------------------9--9--9--9--9-----------------|x1
   . . . . . . . . . . . . . . . . . . . . . . . . . . . . . . . . . . . . 

e|-----------------------------------------------------------------------------------------------------|
b|-----------------------------------------------------------------------------------------------------|
g|-------------------------------------------------------------------------6666-8888-66666666----------|
d|-8---8---5---5---8---8---0---0---1---1---0---0---3---3---5---5---5---5---6666-8888-66666666-66666666-|
a|---6---6---6---6---6---6---1---1---1---1---1---1---1---1---3---3---6---6-4444-6666-44444444-66666666-|
E|--------------------------------------------------------------------------------------------44444444-|x1
   . . . . . . . . . . . . . . . . . . . . . . . . . . . . . . . . . . . . 

Coro
Guitarra 2
e|---------|   e|---------|   e|---------|   e|-----------------|   
b|---------|   b|---------|   b|---------|   b|-----------------|   
g|-----5---|   g|-----5---|   g|-----5---|   g|-----5-------5---|    
d|---6---6-|   d|---6---6-|   d|---6---6-|   d|---6---6---6---6-|     
a|---------|   a|-6-------|   a|-3-------|   a|-4-------6-------|   
E|-4-------|x2 E|---------|x2 E|---------|X2 E|-----------------|X1

Ambas guitarras
e|---------------------------------------------------------------------------------|
B|---------------------------------------------------------------------------------|
G|---------------------------------------------------------------------------------|
D|88888-88-88-88-88-888888-88-88-88-88-666666-66-66-66-66-6666666-66-66-88-88888-8-|
A|66666-66-66-66-66-666666-66-66-66-66-333333-33-33-33-33-4444444-44-44-66-66666-6-|
E|44444-44-44-44-44----------------------------------------------------------------|x1
  .....             ......             ......             .......          .....

Solo
Guitarra 1
e|-------------------------------|
B|-------------------------------|
G|-------------------------------|
D|666666-88888-5555555-6666-8888-|
A|666666-66666-3333333-4444-6666-|
E|444444-------------------------|x2

No es perfecto pero se olle bien!
Guitarra 2
e|--------------------------------------------------------------------------------------15h16-18-16p15-16-|
B|-------------------9-11-13-14-16v-14h16-18-18-18-18-18-18-20-20-20-20-20-20-21-21-21v-------------------|
G|---------------8-10-------------------------------------------------------------------------------------|
D|---------6-8-10-----------------------------------------------------------------------------------------|
A|------6-8-----------------------------------------------------------------------------------------------|
E|4-6-8---------------------------------------------------------------------------------------------------|

e|---------------------------------------------------|
b|-------------13-14-16-14-13-11-9-13h14-18-16h18-16-|
g|-12-13-15-13---------------------------------------|
d|---------------------------------------------------|
a|---------------------------------------------------|
E|---------------------------------------------------|

No me se la otra parte 
Solamente la guitarra 1:
"Robame el dolor..."
e|---------------------------------------------------|
b|---------------------------------------------------|
g|----------88888888-----------5555555555-66666666-8-|
d|-66666666-88888888-6666-5555-5555555555-66666666-8-|
a|-66666666-66666666-6666-6666-3333333333-44444444-6-|
E|-44444444----------4444-3333-----------------------|x1

Coro
Ambas guitarras
e|--------------------------------------|
b|--------------------------------------|
g|----------88888888-55555555-6666-8888-|
d|-66666666-88888888-55555555-6666-8888-|
a|-66666666-66666666-33333333-4444-6666-|
E|-44444444-----------------------------|x1

e|-------------------------------------------------|
b|-------------------------------------------------|
g|----------88888888-55555555-6666-----------------|
d|-66666666-88888888-55555555-6666-8888-88-8888-88-|
a|-66666666-66666666-33333333-4444-6666-66-6666-66-|
E|-44444444----------------------------------------|x1
                                   ....    ....
Outro
Ambas guitarras
e|--------------------------------------------------------------|
B|--------------------------------------------------------------|
G|--------------------------------------------------------6-8-6-|
D|88888-88-88-88-88-888888-88-88-88-88-666666-66-66-66-66-6-8-6-|
A|66666-66-66-66-66-666666-66-66-66-66-333333-33-33-33-33-4-6-4-|
E|44444-44-44-44-44---------------------------------------------|x1

Comentarios del colaborador: bueno ps esa fue la tablatura de cita en el quirofano de panda esta tablatura la saque de ultimate guitar de ese sitio la saque!! xD espero les sirva

Calificar esta versión:
Aviso: Este fichero es trabajo propio de su transcriptor y representa su interpretación personal de la canción. El material contenido en esta página es para exclusivo uso privado, por lo que se prohibe su reproducción o retransmisión, así como su uso para fines comerciales.