Casi Nula Autoestima, Panda (tablatura)

Autor: Anónimo | 45543 visualizaciones

k onda aki otra cancion del disco poetics es la cuarta
k subo del disco poetics k la verdad esta muy bueno
aki les dejo los acordes
saludos.
(Evelyn te amo)


INTRO:

e----------4-4-4-4-4------------------------8-8-8-8-8-----------------
B--2/6-6-6-----------6-6-6--4-4-4-----6-6-6-----------6-6-6--4-4-4----
G---------------------------------6-6-----------------------------6-6-
D---------------------------------------------------------------------
A----------------------------------------------------------------------
E----------------------------------------------------------------------

e-------4-4-4-4-4-----------------------------------------------------
B-6-6-6-----------6-6-6--4-4-4-----6-7-6-4--6-7-6-4---4-6---------------
G------------------------------6-6---------6--------6----------------
D--------------------------------------------------------------------
A-------------------------------------------------------------------
E-------------------------------------------------------------------

(lleva esto toda la cancion):

C# A#m D#m G#


Que se siente verlos caminar justo enfrente
excelencia corporal, inteligencia cultural
te duele admitirlo, ese niño te saca de quicio
ya no puedes controlar el querer ser alguien mas

esos celos ese rencor y ese resentimiento
hacia el que es mejor, te hace sentir menos
sera el estilo ajeno de vivir de cada uno de ellos
o acaso el infeliz autoestima que hay en ti

tu tienes una solucion
quieres causar admiracion
auto llenarte de honor

tu tienes algo que nadie mas
y no es facil de lograr
tu indiferencia a la moral

estoy seguro que te he perdido una vez
te atreviste a sonreir al ver a alguien mas sufrir
cosas buenas es que nunca se te cumpliran
no es correcto el desear el mal a alguien mas

yo lo entiendo injusto es
es muy dificil de creer eso no cabe en el ayer
la excelencia corporal,inteligencia cultural
no se logra con solo estirar el brazo

no soy competente para ti
quiero saber que es lo que tiene el que no tenga yo
ven dime que no soy idoneo para ti
y asi considerar cambiarme de cuerpo y de humor

no soy competente para ti
quiero saber que es lo que tiene el que no tenga yo
ven dime que no soy idoneo para ti
y asi considerar cambiarme de cuerpo, de cuerpo, de cuerpo y de humor

cosiderar y cambiarme de cuerpo, de cuerpo y de humor
de cuerpo y de humor
de cuerpo y de humor
pues yo quiero ser el yo quiero ser el
Calificar esta versión:
Aviso: Este fichero es trabajo propio de su transcriptor y representa su interpretación personal de la canción. El material contenido en esta página es para exclusivo uso privado, por lo que se prohibe su reproducción o retransmisión, así como su uso para fines comerciales.
Más versiones de Casi Nula Autoestima, Panda
Casi Nula Autoestima
acordes
Casi Nula Autoestima (ver 2)
acordes
Casi Nula Autoestima
tablatura
Casi Nula Autoestima (ver 2)
tablatura
Descubre más canciones de Panda