Atractivo Encontramos En Lo Más Repugnante, Panda (bateria)

Autor: Anónimo | 27079 visualizaciones

hola que tal
esta es mi primera transcripsion que ago
espero que les guste

en esta cancion solo se usa

Tp         tom de piso

R          ride

B          bombo

H          hi hat

T1         tom pequeño

t2         tom

intro  con la guitarra
desde que enpiesa hasta el segundo  0:09

H-x-x-x-x-x-x-x-x-x-x-x-x-x-x-x-x-x-|

en el minuto  0:10
entra el bajo con la guitarra y la bateria,
se ripite hasta el segundo  0:22

B -0---0---0---0---0---0---0---0---0---0---0---0---0----|
Tp---°---°---°---°---°---°---°---°---°---°---°---°---°--|
R----x---x---x---x---x---x---x---x---x---x---x---x---x--|

en el minuto  0:23
se acaba con el ride

R-x-|

yo te encuentro tan bella y tan ireal......

B --0---0---0---0---0---0---0---0---0---0---|
Tp----°---°---°---°---°---°---°---°---°---°-|

en el minuto  0:36 entra esto

tu mirada profunda y fria esquibe..........

B -0---0---0---0---0---0---0---0---0---0---0---0---0----|
Tp---°---°---°---°---°---°---°---°---°---°---°---°---°--|
R ---x---x---x---x---x---x---x---x---x---x---x---x---x--|

en el minuto  0:49 va esto

R-x---------------------------------|
H-x-x-x-x-x-x-x-x-x-x-x-x-x-x-x-x-x-|

en el minuto 0:56 entra con

el poeta se va el poeta se va.....

B -0---0---0---0---0---0---0---0---0---0---0---0---0----|
Tp---°---°---°---°---°---°---°---°---°---°---°---°---°--|
R ---x---x---x---x---x---x---x---x---x---x---x---x---x--|

el el minuto 1:10
se ase como el intro

H-x-x-x-x-x-x-x-x-x-x-x-x-x-x-x-x-x-|

en el minuto  1:14 entra esto

B -0---0---0---0---0---0---0---0---0---0---0---0---0-----|
Tp---°---°---°---°---°---°---°---°---°---°---°---°---°---|
R ---x---x---x---x---x---x---x---x---x---x---x---x---x--x|

en el minuto  1:24
el tiempo se come nuestras vidas.........

B --0---0---0---0---0---0---0---0---0---0---|
Tp----°---°---°---°---°---°---°---°---°---°-|

el el  1:36 entra esto

quiero arrojar......

B -0---0---0---0---0---0---0---0---0---0---0---0---0----|
Tp---°---°---°---°---°---°---°---°---°---°---°---°---°--|
R ---x---x---x---x---x---x---x---x---x---x---x---x---x--|

en el 1:50  cuando suena el bajo tambien el ride  asi que calculenle

R-x---x---x---x---x---x---x---x---x-|
H-x-x-x-x-x-x-x-x-x-x-x-x-x-x-x-x-x-|

en el 1:56
va esto

el poeta se va el poeta se va........
B -0---0---0---0---0---0---0---0---0---0---0---0---0----|
Tp---°---°---°---°---°---°---°---°---°---°---°---°---°--|
R ---x---x---x---x---x---x---x---x---x---x---x---x---x--|


en el minuto  2:23   va el puro bombo  hasta el minuto  2:50

B -0-0-0-0-0-0-0-0-0-0-0-0-0-0--0-0-0-0-0-0-0-0-0-0-0-0-0-0-0-0-|

y en el minuto  2:51

esto se ase rapido

B --0--0--0--0--0--0--0--0--0--0--0--0--0--0--0--0--0--0--|
Tp---°--°--°--°--°--°--°--°--°--°--°--°--°--°--°--°--°--°-|

en el minuto  2:56

esto es rapito

Tp-°-°-°-|
T --°-°--|

en el minuto 2:57  va esto

B --0--0--0--0--0--0--0--0--0--0--0--0--0--0--0--0--0--0--|
Tp---°--°--°--°--°--°--°--°--°--°--°--°--°--°--°--°--°--°-|

en el minuto 3:04 va asi

Tp-°--°--°--°--°--°--°--°--°--°--°--°--°--°-|
R ----x-----x-----x-----x-----x-----x-----x-|

en el minuto  3:14  es asi

Tp-°-----°-----°--°-----|
R ----x-----x--------x--|

y se acaba


dudas, sugerencias, correcciones, etc a mi correo
Calificar esta versión:
Aviso: Este fichero es trabajo propio de su transcriptor y representa su interpretación personal de la canción. El material contenido en esta página es para exclusivo uso privado, por lo que se prohibe su reproducción o retransmisión, así como su uso para fines comerciales.