Ando Pedo Y Ella Está Aquí, Panda (tablatura)

Autor: Anónimo | 45506 visualizaciones

Que Onda, aqui les traigo esta tablatura, como me gustan.
se ve muy larga pero no es asi, si no que la separe parte
por parte para que se pudiera entender exelentemente bien.
Desde mi punto de vista esta  es la mejor tablatura que hay de
esta rola, mas completa, mejor explicada, mas estructurada
disfrutenla.......

Cualuier duda comentario o sugerencia envienmela a punketox@hotmail.com
                                 Y
>>

PANDA: "ANDO PEDO Y ELLA ESTA AQUI"
P.M: Palm Mute (Palma sobre las cuerdas)
/: Slide down (deslizar hacia abajo)


INTRO (Lo hacen las dos guitarras)
|-----------------------------------------------------------------------------
|-----------------------------------------------------------------------------
|-----------------------------------------------------------------------------
|-2-2-2-2-2-2-2-2-2--3-3-3-3-3-3-3-3-3--4-4-4-4-4-4-4-4-4--3-3-3-3-3-3-3-3-3--
|-2-2-2-2-2-2-2-2-2--3-3-3-3-3-3-3-3-3--4-4-4-4-4-4-4-4-4--3-3-3-3-3-3-3-3-3--
|-x-x-x-x-x-x-x-x-x--1-1-1-1-1-1-1-1-1--2-2-2-2-2-2-2-2-2--1-1-1-1-1-1-1-1-1--
|P.M____| |P.M__|  |P.M____| |P.M__|  |P.M____| |P.M__|  |P.M____| |P.M__|


----------------------------------------------------------------------------|
----------------------------------------------------------------------------|
----------------------------------------------------------------------------|
-2-2-2-2-2-2-2-2-2--3-3-3-3-3-3-3-3-3--4-4-4-4-4-4-4-4-4--6-6-6-6-6-6-6-6-6-|
-2-2-2-2-2-2-2-2-2--3-3-3-3-3-3-3-3-3--4-4-4-4-4-4-4-4-4--6-6-6-6-6-6-6-6-6-|
-x-x-x-x-x-x-x-x-x--1-1-1-1-1-1-1-1-1--2-2-2-2-2-2-2-2-2--4-4-4-4-4-4-4-4-4-|
|P.M____| |P.M__|  |P.M____| |P.M__|  |P.M____| |P.M__|


PUENTE INTRO-VERSO 1 (guitarra #1)
|-------------------------------------------------
|---------------------------------------6-7-6-----
|-6-4-3-------6-4-3-------6-4-3-------6-------6---
|-------4-6-4-------4-6-4-------4-6-4-----------4-
|-------------------------------------------------
|-------------------------------------------------

-------------------------------------------------|
---------------------------------------6-7-6-----|
-6-4-3-------6-4-3-------6-4-3-------6-------6-8-|
-------4-6-4-------4-6-4-------4-6-4-------------|
-------------------------------------------------|
-------------------------------------------------|

PUENTE INTRO-VERSO 1 (guitarra #2)
|-----------------------------------------------------------------------------------|
|-----------------------------------------------------------------------------------|
|---------------------6-6-6-6-6-6-6-6-6-6--4-4-4-4-4-4-4-4-4-4/8-8-8-8-8--6-6-6-6-6-|
|-4-4-4-4-4-4-4-4-4-4-6-6-6-6-6-6-6-6-6-6--4-4-4-4-4-4-4-4-4-4/8-8-8-8-8--6-6-6-6-6-|
Calificar esta versión:
Aviso: Este fichero es trabajo propio de su transcriptor y representa su interpretación personal de la canción. El material contenido en esta página es para exclusivo uso privado, por lo que se prohibe su reproducción o retransmisión, así como su uso para fines comerciales.
Más versiones de Ando Pedo Y Ella Está Aquí, Panda
Ando Pedo Y Ella Esta Aqui
acordes
Ando Pedo Y Ella Esta Aqui (ver 2)
acordes
Ando Pedo Y Ella Está Aquí
tablatura
Ando Pedo Y Ella Está Aquí (ver 2)
tablatura
Ando Pedo Y Ella Está Aquí
bajo
Ando Pedo Y Ella Está Aquí (ver 2)
bajo
Descubre más canciones de Panda