Amnistía, Panda (tablatura)

Autor: armandoman | 27587 visualizaciones

ahora les traigo la tab de amnisia ya me dijeron que se escucha bien con capo pero si se dan 
cuenta se toca con un ukelele 
asi que decidí sacrla bien y aqui se las dejo si les gusta 
dejen su comentario y dudas contáctenme armandoentumundo@hotmail.com 

             Am                                   F
e|-8--8-8-8-8-8-|-8-8-8--8--8--|-8--8--8--8--8--|-12--12-12-12-12-12-|
B|-8--8-8-8-8-8-|-8-8-10-10-10-|-10-10-10-10-10-|-13--13-13-13-13-13-|
G|-9--9-9-9-9-9-|-9-9-10-10-10-|-10-10-10-10-10-|-12--12-12-12-12-12-|
D|--------------|--------------|----------------|--------------------|
A|--------------|--------------|----------------|--------------------|
E|--------------|--------------|----------------|--------------------|

         C             G
e|-10--8--7--7-7-|-7-7-7--7-7-|
B|-13--13-8--8-8-|-8-8-8--8-8-|
G|-12--12-7--7-7-|-7-7-7--7-7-|
D|---------------|------------|
A|---------------|------------|
E|---------------|------------|

VERSO 1

       Am             F                           C
e|-8--8-8-8-8-8-|-8-8-8--8--8--|-8--8--8--8--8--|-12--12-12-12-12-12-|
B|-8--8-8-8-8-8-|-8-8-10-10-10-|-10-10-10-10-10-|-13--13-13-13-13-13-|
G|-9--9-9-9-9-9-|-9-9-10-10-10-|-10-10-10-10-10-|-12--12-12-12-12-12-|
D|--------------|--------------|----------------|--------------------|
A|--------------|--------------|----------------|--------------------|
E|--------------|--------------|----------------|--------------------|

          G
e|-10--8--7--7-7-|-7-7-7--7-7-|
B|-13--13-8--8-8-|-8-8-8--8-8-|
G|-12--12-7--7-7-|-7-7-7--7-7-|
D|---------------|------------|
A|---------------|------------|
E|---------------|------------|


e|-8--8-8-8-8-8-|-8-8-8--8--8--|-8--8--8--8--8--|-12--12-12-12-12-12-|
B|-8--8-8-8-8-8-|-8-8-10-10-10-|-10-10-10-10-10-|-13--13-13-13-13-13-|
G|-9--9-9-9-9-9-|-9-9-10-10-10-|-10-10-10-10-10-|-12--12-12-12-12-12-|
D|--------------|--------------|----------------|--------------------|
A|--------------|--------------|----------------|--------------------|
E|--------------|--------------|----------------|--------------------|


e|-10--8--7--7-7-|-7-7-7--7-7-|-5--5-5-5-5-5-|-5-5-8--8-8--|
B|-13--13-8--8-8-|-8-8-8--8-8-|-6--6-6-6-6-6-|-6-6-8--8-8--|
G|-12--12-7--7-7-|-7-7-7--7-7-|-5--5-5-5-5-5-|-5-5-9--9-9--|
D|---------------|------------|--------------|-------------|
A|---------------|------------|--------------|-------------|
E|---------------|------------|--------------|-------------|

e|-8-8-8--8-8-|-7--7-7-7-7-7-|-7-7-5--5-5-|-5-5-5--5-5-|
B|-8-8-8--8-8-|-8--8-8-8-8-8-|-8-8-6--6-6-|-6-6-6--6-6-|
G|-9-9-9--9-9-|-9--9-9-9-9-9-|-9-9-5--5-5-|-5-5-5--5-5-|
D|------------|--------------|------------|------------|
A|------------|--------------|------------|------------|
E|------------|--------------|------------|------------|

e|-5--5-5-5-5-5-|-5-5-8--8-8|-8-8-8--8-8-|-7--7-7-7-7-7-|
B|-6--6-6-6-6-6-|-6-6-8--8-8|-8-8-8--8-8-|-8--8-8-8-8-8-|
G|-5--5-5-5-5-5-|-5-5-9--9-9|-9-9-9--9-9-|-9--9-9-9-9-9-|
D|--------------|-----------|------------|--------------|
A|--------------|-----------|------------|--------------|
E|--------------|-----------|------------|--------------|

e|-7-7-5--5-5-|-5-5-7--7-7-7-7-|--5--|
B|-8-8-6--6-6-|-6-6-8--8-8-8-8-|--6--|
G|-9-9-5--5-5-|-5-5-7--7-7-7-7-|--5--|
D|------------|----------------|-----|
A|------------|----------------|-----|
E|------------|----------------|-----|

INTRO X 2

e|-8--8-8-8-8-8-|-8-8-8--8--8--|-8--8--8--8--8--|-12--12-12-12-12-12-|
B|-8--8-8-8-8-8-|-8-8-10-10-10-|-10-10-10-10-10-|-13--13-13-13-13-13-|
G|-9--9-9-9-9-9-|-9-9-10-10-10-|-10-10-10-10-10-|-12--12-12-12-12-12-|
D|--------------|--------------|----------------|--------------------|
A|--------------|--------------|----------------|--------------------|
E|--------------|--------------|----------------|--------------------|


e|-10--8--7--7-7-|-7-7-7--7-7-|
B|-13--13-8--8-8-|-8-8-8--8-8-|
G|-12--12-7--7-7-|-7-7-7--7-7-|
D|---------------|------------|
A|---------------|------------|
E|---------------|------------|


VERSO 2

 ES MUCHO PRETENDER...

       Am             F                           C
e|-8--8-8-8-8-8-|-8-8-8--8--8--|-8--8--8--8--8--|-12--12-12-12-12-12-|
B|-8--8-8-8-8-8-|-8-8-10-10-10-|-10-10-10-10-10-|-13--13-13-13-13-13-|
G|-9--9-9-9-9-9-|-9-9-10-10-10-|-10-10-10-10-10-|-12--12-12-12-12-12-|
D|--------------|--------------|----------------|--------------------|
A|--------------|--------------|----------------|--------------------|
E|--------------|--------------|----------------|--------------------|

          G
e|-10--8--7--7-7-|-7-7-7--7-7-|
B|-13--13-8--8-8-|-8-8-8--8-8-|
G|-12--12-7--7-7-|-7-7-7--7-7-|
D|---------------|------------|
A|---------------|------------|
E|---------------|------------|


e|-8--8-8-8-8-8-|-8-8-8--8--8--|-8--8--8--8--8--|-12--12-12-12-12-12-|
B|-8--8-8-8-8-8-|-8-8-10-10-10-|-10-10-10-10-10-|-13--13-13-13-13-13-|
G|-9--9-9-9-9-9-|-9-9-10-10-10-|-10-10-10-10-10-|-12--12-12-12-12-12-|
D|--------------|--------------|----------------|--------------------|
A|--------------|--------------|----------------|--------------------|
E|--------------|--------------|----------------|--------------------|


e|-10--8--7--7-7-|-7-7-7--7-7-|-5--5-5-5-5-5-|-5-5-8--8-8--|
B|-13--13-8--8-8-|-8-8-8--8-8-|-6--6-6-6-6-6-|-6-6-8--8-8--|
G|-12--12-7--7-7-|-7-7-7--7-7-|-5--5-5-5-5-5-|-5-5-9--9-9--|
D|---------------|------------|--------------|-------------|
A|---------------|------------|--------------|-------------|
E|---------------|------------|--------------|-------------|

e|-8--8-8-8-8-8-|-8-8-8--8--8--|-8--8--8--8--8--|-12--12-12-12-12-12-|
B|-8--8-8-8-8-8-|-8-8-10-10-10-|-10-10-10-10-10-|-13--13-13-13-13-13-|
G|-9--9-9-9-9-9-|-9-9-10-10-10-|-10-10-10-10-10-|-12--12-12-12-12-12-|
D|--------------|--------------|----------------|--------------------|
A|--------------|--------------|----------------|--------------------|
E|--------------|--------------|----------------|--------------------|

e|-10--8--7--7-7-|-7-7-7--7-7-|-5--5-5-5-5-5-|-5-5-8--8-8--|
B|-13--13-8--8-8-|-8-8-8--8-8-|-6--6-6-6-6-6-|-6-6-8--8-8--|
G|-12--12-7--7-7-|-7-7-7--7-7-|-5--5-5-5-5-5-|-5-5-9--9-9--|
D|---------------|------------|--------------|-------------|
A|---------------|------------|--------------|-------------|
E|---------------|------------|--------------|-------------|

e|-8--8-8-8-8-8-|-8-8-8--8--8--|-8--8--8--8--8--12--12-12-12-12-12-12-|
B|-8--8-8-8-8-8-|-8-8-10-10-10-|-10-10-10-10-10-13--13-13-13-13-13-13-|
G|-9--9-9-9-9-9-|-9-9-10-10-10-|-10-10-10-10-10-12--12-12-12-12-12-12-|
D|--------------|--------------|--------------------------------------|
A|--------------|--------------|--------------------------------------|
E|--------------|--------------|--------------------------------------|


e|-10--8--7--7-7-|-7-7-7--7-7-|
B|-13--13-8--8-8-|-8-8-8--8-8-|
G|-12--12-7--7-7-|-7-7-7--7-7-|
D|---------------|------------|
A|---------------|------------|
E|---------------|------------|

e|-8-8-8--8-8-|-7--7-7-7-7-7-|-7-7-5--5-5-|-5-5-5--5-5-|
B|-8-8-8--8-8-|-8--8-8-8-8-8-|-8-8-6--6-6-|-6-6-6--6-6-|
G|-9-9-9--9-9-|-9--9-9-9-9-9-|-9-9-5--5-5-|-5-5-5--5-5-|
D|------------|--------------|------------|------------|
A|------------|--------------|------------|------------|
E|------------|--------------|------------|------------|

e|-5--5-5-5-5-5-|-5-5-8--8-8|-8-8-8--8-8-|-7--7-7-7-7-7-|
B|-6--6-6-6-6-6-|-6-6-8--8-8|-8-8-8--8-8-|-8--8-8-8-8-8-|
G|-5--5-5-5-5-5-|-5-5-9--9-9|-9-9-9--9-9-|-9--9-9-9-9-9-|
D|--------------|-----------|------------|--------------|
A|--------------|-----------|------------|--------------|
E|--------------|-----------|------------|--------------|

e|-7-7-5--5-5-|-5-5-7--7-7-7-7-|--5--|
B|-8-8-6--6-6-|-6-6-8--8-8-8-8-|--6--|
G|-9-9-5--5-5-|-5-5-7--7-7-7-7-|--5--|
D|------------|----------------|-----|
A|------------|----------------|-----|
E|------------|----------------|-----|
Calificar esta versión:
Aviso: Este fichero es trabajo propio de su transcriptor y representa su interpretación personal de la canción. El material contenido en esta página es para exclusivo uso privado, por lo que se prohibe su reproducción o retransmisión, así como su uso para fines comerciales.
Más versiones de Amnistía, Panda
Amnistia
acordes
Amnistia (ver 2)
acordes
Amnistia (ver 3)
acordes
Amnistía
tablatura
Descubre más canciones de Panda