Ah Pero Como Vendo Cassettes, Panda (tablatura)

Autor: armandoman | 15087 visualizaciones

solo calculen los tiempos de la segunda guitarra y si esta mal hay les va de nuevo mi correo armandoentumundo@hotmail.com

Intro:

Guitarra 2:
00:00
D#||--------------------------------------------------|
A#||--------------------------------------------------|
F#||--------------------------------------------------|
C#||--8/10--6--8--88888888--10-10-10-10-10-10-10-10---|
G#||--8/10--6--8--88888888--8--8--8--8--8--8--8--8----|
D#||--6/8---4--6--66666666--8--8--8--8--8--8--8--8----|

00:06
D#||---------------------------|
A#||---------------------------|
F#||--77---10-10---------------|x8
C#||--77---10-10--10-10---55---|
G#||--55---8--8---10-10---55---|
D#||--------------8--8----33---|

Guitarra 1:
00:06
D#||--10/10/10/10/10/10-13/13/13--10/10/10/10-----------------|
A#||-------------------------------------------6/7/888--------|x2
F#||----------------------------------------------------10-7--|

00:16
D#||-------------------------------------------|
A#||-------------------------------------------|
F#||--7-10-12/12/12-10-777-10-12/12/12-10-7----|

00:19
D#||-------------------------------------------|
A#||-------------------------------------------|
F#||--7-10/10-7-10-12--7-10-12/12/12-10-7------|

00:22
D#||--10/10/10/10/10/10-13/13/13--10/10/10/10-----------------|
A#||-------------------------------------------6/7/888--------|
F#||----------------------------------------------------10-7--|

Guitarra 2:
00:27
D#||--------------------------------------|
A#||--------------------------------------|
F#||--------------------------------------|
C#||--88888888--10-10-10-10-10-10-10-10---|
G#||--88888888--8--8--8--8--8--8--8--8----|
D#||--66666666--8--8--8--8--8--8--8--8----|

CORO:

Guitarras 1 y 2:
00:32
D#||----------------------|
A#||----------------------|
F#||-------55--------33---|x4
C#||--33---55---55---33---|
G#||--33---33---55---11---|
D#||--11--------33--------|


Guitarra 2:
00:42
D#||--------------------------------------|
A#||--------------------------------------|
F#||--------------------------------------|
C#||--88888888--10-10-10-10-10-10-10-10---|
G#||--88888888--8--8--8--8--8--8--8--8----|
D#||--66666666--8--8--8--8--8--8--8--8----|

00:48
D#||---------------------------|
A#||---------------------------|
F#||--77---10-10---------------|x4
C#||--77---10-10--10-10---55---|
G#||--55---8--8---10-10---55---|
D#||--------------8--8----33---|

Guitarra 1:
00:48
D#||--10/10/10/10/10/10-13/13/13--10/10/10/10-----------------|
A#||-------------------------------------------6/7/888--------|x2
F#||----------------------------------------------------10-7--|

Guitarra 2:
00:58
D#||--------------------------------------|
A#||--------------------------------------|
F#||--------------------------------------|
C#||--88888888--10-10-10-10-10-10-10-10---|
G#||--88888888--8--8--8--8--8--8--8--8----|
D#||--66666666--8--8--8--8--8--8--8--8----|

CORO:
Guitarras 1 y 2:
01:03
D#||----------------------|
A#||----------------------|
F#||-------55--------33---|x4
C#||--33---55---55---33---|
G#||--33---33---55---11---|
D#||--11--------33--------|

Guitarra 2:
01:14
D#||-----------------------------------------|
A#||-----------------------------------------|
F#||-----------------------------------------|
C#||--88888888--10-10-10-10-10-10-10-10---12-|
G#||--88888888--8--8--8--8--8--8--8--8----12-|
D#||--66666666--8--8--8--8--8--8--8--8----10-|

solo de bateria y bajo

Guitarra 2:
01:29
D#||---------------------------|
A#||---------------------------|
F#||--77---10-10---------------|x4
C#||--77---10-10--10-10---55---|
G#||--55---8--8---10-10---55---|
D#||--------------8--8----33---|

Guitarra 1:
01:29
D#||--10/10/10/10/10/10-13/13/13--10/10/10/10-----------------|
A#||-------------------------------------------6/7/888--------|
F#||----------------------------------------------------10-7--|
Calificar esta versión:
Aviso: Este fichero es trabajo propio de su transcriptor y representa su interpretación personal de la canción. El material contenido en esta página es para exclusivo uso privado, por lo que se prohibe su reproducción o retransmisión, así como su uso para fines comerciales.
Más versiones de Ah Pero Como Vendo Cassettes, Panda
Ah Pero Como Vendo Cassettes
acordes
Ah Pero Como Vendo Cassettes
tablatura
Ah Pero Como Vendo Cassettes
bajo
Descubre más canciones de Panda