Agradable Locura Temporal, Panda (bajo)

Autor: Anónimo | 17900 visualizaciones

TZV...

INTRO:
G-----------------------------------------------------------|
D-----------------------------------------------------------|
A-4-4-4-444-444-4-4-4-444-444-1-1-1-111-111-1-1-1-111-111---|
E-----------------------------------------------------------|

G------------------------------------------------------|
D------------------------------------------------------|
A-----------------------------4-4-4-444-444-4-4-4-44---|
E-2-2-2-222-222-2-2-2-222-222--------------------------|

VERSO:
G-------------------------------------------------------|
D-------------------------------------------------------|
A-4444444444444444444444444-1111111111111111111111111---|
E-------------------------------------------------------|

G-------------------------------------------------------|
D-------------------------------------------------------|
A---------------------------4444444444444444444444444---|
E-2222222222222222222222222-----------------------------|

G-------------------------------------------------------|
D-------------------------------------------------------|
A-1111111111111111111111111-----------------------------|
E---------------------------2222222222222222222222222---|

G-----------------------------|
D-----------------------------|
A-4444444444444444444444444---|
E-----------------------------|

PRECORO:
G-------------------------------------------------------|
D-------------------------------------------------------|
A-1111111111111111111111111-----------------------------|
E---------------------------2222222222222222222222222---|

G-----------------------------|
D-----------------------------|
A-----------------------------|
E-4444444444444444444444444---|

CORO:
G-------------------------------------------------------|
D-------------------------------------------------------|
A-1111111111111111111111111-----------------------------|
E---------------------------2222222222222222222222222---|

G----------------------------------------------------------|
D----------------------------------------------------------|
A----------------------------------------------------------|
E-4444444444444444444444444-2222222222222222222222222-4~---|

INTRO:
G-----------------------------------------------------------|
D-----------------------------------------------------------|
A-4-4-4-444-444-4-4-4-444-444-1-1-1-111-111-1-1-1-111-111---|
E-----------------------------------------------------------|

G----------------------------------------------------------|
D----------------------------------------------------------|
A-----------------------------4-4-4-444-444-4-4-4-44-------|
E-2-2-2-222-222-2-2-2-222-222------------------------------|

VERSO:
G-------------------------------------------------------|
D-------------------------------------------------------|
A-4444444444444444444444444-1111111111111111111111111---|
E-------------------------------------------------------|

G-------------------------------------------------------|
D-------------------------------------------------------|
A---------------------------4444444444444444444444444---|
E-2222222222222222222222222-----------------------------|

G-------------------------------------------------------|
D-------------------------------------------------------|
A-1111111111111111111111111-----------------------------|
E---------------------------2222222222222222222222222---|

G-----------------------------|
D-----------------------------|
A-4444444444444444444444444---|
E-----------------------------|

PRECORO:
G-------------------------------------------------------|
D-------------------------------------------------------|
A-1111111111111111111111111-----------------------------|
E---------------------------2222222222222222222222222---|

G-----------------------------|
D-----------------------------|
A-----------------------------|
E-4444444444444444444444444---|

CORO:
G-------------------------------------------------------|
D-------------------------------------------------------|
A-1111111111111111111111111-----------------------------|
E---------------------------2222222222222222222222222---|

G----------------------------------------------------------|
D----------------------------------------------------------|
A----------------------------------------------------------|
E-4444444444444444444444444-2222222222222222222222222-4~---|

OTRO:
G--------------------------------------|
D--------------------------------------|
A----4--4-664---------8--8----64-------|
E-222-22-2---6424--666-66-6-6~--642----|
                                           x2
G--------------------------------------|
D--------------------------------------|
A----4--4-664------666-66-6--8~6-------|
E-222-22-2---6424-----6--6------8640---|

FINAL:
G-----------------------------------------------------------|
D-----------------------------------------------------------|
A-4-4-4-444-444-4-4-4-444-444-1-1-1-111-111-1-1-1-111-111---|
E-----------------------------------------------------------|

G--------------------------------------------------------|
D--------------------------------------------------------|
A-----------------------------4-4-4-444-444-4-4-44-4/------|
E-2-2-2-222-222-2-2-2-222-222------------------------------|
Calificar esta versión:
Aviso: Este fichero es trabajo propio de su transcriptor y representa su interpretación personal de la canción. El material contenido en esta página es para exclusivo uso privado, por lo que se prohibe su reproducción o retransmisión, así como su uso para fines comerciales.
Más versiones de Agradable Locura Temporal, Panda
Agradable Locura Temporal
acordes
Agradable Locura Temporal
tablatura
Agradable Locura Temporal
bajo
Descubre más canciones de Panda