Abigail, Panda (bajo)

Autor: Anónimo | 23337 visualizaciones

Aqui de nuevo dejando una rola panda de su nuevo disco Poetics, espero
les guste disfrutenla esta muy facil.....

Afinacion BeMol

F#
C#
G#
D#

Intro:
Empiesa cuando entra la bateria :

F#)---------------------
C#)---------------------
G#)---------55-45-------
D#)-22-22-2--------17/2-


F#)----------------------------------
C#)----------------------------------   x2
G#)------------------5-55545---------
D#)2-22202-2-22202-5---------5-55545-

Verso:

"Abigail tu linda...."

F#)----------------------------
C#)----------------------------
G#)----------4-55--------------
D#)-22-2222--------5555-17/2---

F#)------------------------
C#)------------------------  x3
G#)----------4-55----------
D#)-22-2222--------5555----

"No es mejor difamacion..."

F#)----------------------------------
C#)----------------------------------  x2
G#)-5555555555555--------------------
D#)---------------22222222-00000000--

F#)----------------------------------
C#)----------------------------------
G#)------------------5-55545---------
D#)2-22202-2-22202-5---------5-55545-

"Lider mundial...."

F#)------------------------
C#)------------------------  x2
G#)----------4-55----------
D#)-22-2222--------5555----

"Seras real seras........"

F#)----------------------------------
C#)----------------------------------  x4
G#)-5555555555555--------------------
D#)---------------22222222-00000000--

F#)-----------------------
C#)-----------------------
G#)-555455555554555-------
D#)-----------------------

Estribillo:


F#)-------------------------------------------
C#)-------------------------------------------
G#)---3-5---3-5---3-0--3---3-5---3-5---3-0--3-
D#)-2-----2-----5-------2-----2-----5---------


F#)--------------
C#)-------------- x2
G#)-------55-----
D#)-22-22----55--

"Mismo fuego que calienta.."

F#)----------------------
C#)----------------------
G#)-------55-------------
D#)-22-22----55--1517/2--

"Mismo guego que te quema.."

F#)-------------------
C#)-------------------
G#)-------55----------
D#)-22-22----55-25-25-

"Mismo fuego.."

F#)--------------------------------------
C#)--------------------------------------  x2
G#)--------------------5555555-----------
D#)2222222222222222222---------555555----

"Seras real, seras..."

F#)----------------------------------
C#)----------------------------------  x4
G#)-5555555555555--------------------
D#)---------------22222222-00000000--

Final:

F#)---------------------
C#)---------------------
G#)---------------------
D#)2-22202-2-22202------

F#)---------------------
C#)---------------------
G#)---------------------
D#)2-22202-2-22202-5----
Calificar esta versión:
Aviso: Este fichero es trabajo propio de su transcriptor y representa su interpretación personal de la canción. El material contenido en esta página es para exclusivo uso privado, por lo que se prohibe su reproducción o retransmisión, así como su uso para fines comerciales.
Más versiones de Abigail, Panda
Abigail
acordes
Abigail
tablatura
Abigail (ver 2)
tablatura
Abigail
bajo
Descubre más canciones de Panda