3 + 1, Panda (tablatura) (ver 3)

Autor: Anónimo | 41574 visualizaciones

INTRO:   D Bm G Bm A  x2
VERSO:   D Bm A G x2 - Bm A G x2
CORO:    D Bm G Bm A - D Bm G Bm A G
VERSO 2: D Bm G Bm A
VERSO 3: D Bm A G x2 - Bm A G x2
CORO:    D Bm G Bm A - D Bm G Bm A G
SOLO:    D Bm G Bm A - D Bm G
CORO:    D Bm G Bm A - D Bm G Bm A G

INTRO:

 D            Bm          G           Bm      A
----------------------------------------------------
-------8-7-5--------8-7-5-------8-7-5-------8-7-5---
-7---7--------7---7-------7---7-------7---7---------
---7------------7-----------7-----------7-----------
----------------------------------------------------
----------------------------------------------------

 D                             Bm
--------------------------------------------------------------------
--------------------------------------------------------------------
-7--7h9--7--9h11--12--11--9--7-7---7-7h9-9h7-7--9--11--12--11--9----
---------------------------------9-------------------------------12-
--------------------------------------------------------------------
--------------------------------------------------------------------

  G                    Bm      A
-----------------------10-9-10-9--------------
-12-10--------------------------10------------
--------12--11h12-11-9------------9-----------
-----------------------------------10---------
--------------------------------------9h11h12-
----------------------------------------------


SOLO:

 D                                                     Bm
---------------------------------------------------------------------
---------------------------------------------------------------------
-7--7h9--7--9h11--12--11--9-7--7---7--7h9--9h7-7--9h11--12--11--9----
----------------------------------9-------------------------------12-
---------------------------------------------------------------------
---------------------------------------------------------------------

  G                   Bm       A
----------------------10--9--7-6h7--5---------
-12-10--------------------------------8--7----
-------12--11h12-11-9----------------------9--
----------------------------------------------
----------------------------------------------
----------------------------------------------

 D                            Bm
------------------------------------
------------------------------------
-7-7h9-7--9h11--12--11--9--7--7-----
---------------------------------9--
------------------------------------
------------------------------------

                                     G
----------------------------------------
----------------------------------------
-7--7h9--9h7--7--9h11--12--11--9--7--7--
----------------------------------------
----------------------------------------
----------------------------------------

CORO: D Bm G Bm A - D Bm G Bm A G
Calificar esta versión:
Aviso: Este fichero es trabajo propio de su transcriptor y representa su interpretación personal de la canción. El material contenido en esta página es para exclusivo uso privado, por lo que se prohibe su reproducción o retransmisión, así como su uso para fines comerciales.
Más versiones de 3 + 1, Panda
3 + 1
acordes
3 + 1 (ver 2)
acordes
3 + 1 (ver 3)
acordes
3 + 1
tablatura
3 + 1 (ver 2)
tablatura
3 + 1 (ver 3)
tablatura
3 + 1
bajo
Descubre más canciones de Panda