Yo Quiero Amarte Más, Pablo Olivares (tablatura)

Autor: Anónimo | 19395 visualizaciones



                Riff 1
E--8----------12-------10--------8-------|
B--8-------8--------8---------8----8----.|
G--9—--9--------9---------9----------9---|
D--10------------------------------------|
A----------------------------------------|
E ---------------------------------------|

              Riff 2 (x2)

E-8--------12-------10-------8----------|
B----8--------8---------8--------8------|
G-------9--------9---------9-------9----|
D---------------------------------------|
A---------------------------------------|
E---------------------------------------|

               Riff 3

E--7------8-----7---8---7-----|
B--8----8---8--------------8--|
G--7--7-------7---------------|
D—5---------------------------|
A-----------------------------|
E-----------------------------|
Gracias





Calificar esta versión:
Aviso: Este fichero es trabajo propio de su transcriptor y representa su interpretación personal de la canción. El material contenido en esta página es para exclusivo uso privado, por lo que se prohibe su reproducción o retransmisión, así como su uso para fines comerciales.
Más versiones de Yo Quiero Amarte Más, Pablo Olivares
Yo Quiero Amarte Más
acordes
Yo Quiero Amarte Más
tablatura
Descubre más canciones de Pablo Olivares