Te He Echado De Menos, Pablo Alborán (tablatura)

Autor: Anónimo | 41756 visualizaciones

Intro:

G-C9-D/F#
El orden del arpegio es el siguiente: 6-4-3-2-3-4-2-3
(cuando toquen D el orden seria: 4-3-2-1-2-3-1-2)

E|------10--------------10--------------10--------------12-------------|
B|8-8-8----8/12---8-8-8----10~~---8-8-8----8/12---8-8-8----12-10~~-----|
G|-----------------------------------------------------------------12~~|
D|---------------------------------------------------------------------|
A|---------------------------------------------------------------------|
E|---------------------------------------------------------------------|


G
No queda mas que tu,
D
no queda mas que yo
Em                 C9
en este extraño salon.
Am7                           Em
sin nadie que nos diga donde, como
             Dsus4  D  (Arpegio Dsus4 y D)
y cuando nos besamos   E|------3~----2~------0h2p0---------|
                       B|----3----3-----3----------3-------|
                       G|--2-------2------2----------0-----|
                       D|0---------------------------------|
                       A|----------------------------------|
                       E|----------------------------------|

G
Tenía ganas ya
D
De pasar junto a ti
Em                C9
Unos minutos soñando,
Am7                              Em            Dsus4  D
Sin un reloj que cuente las caricias que te voy dando,

C7            B7       Em
Juramento de sal y limón.
Bm7        Am7            B7
Prometimos querernos los dos.


                Em
Te he echado de menos.
          C
Todo este tiempo
                    G                      D
He pensado en tú sonrisa y en tú forma de caminar
                Em
Te he echado de menos.
             C
He soñado el momento
                   G                  D
De verte aquí a mi lado mio dejandote llevar.


(Intro)


G
Quiero que siga así,
D
tu alma pegada a mí,
Em                    C9
mientras nos quedamos quietos,
Am7                        Em                  Dsus4  D
dejando que la piel cumpla poco a poco todos sus deseos.

G
Hoy no hay nada que hacer,
D
quedemonos aqui,
Em                 C9
contandonos secretos,
Am7                        Em                   Dsus4  D
diciendonos bajito que lo nuestro siempre se hará eterno.


C7            B7       Em
Fantasía en una copa de alcohol.
Bm7        Am7            B7
Prometimos volver a vernos.


                Em
Te he echado de menos.
          C
Todo este tiempo
                    G                      D
He pensado en tú sonrisa y en tú forma de caminar
                Em
Te he echado de menos.
             C
He soñado el momento
                   G                  D
De verte aquí a mi lado mio dejandote llevar.


Em                 C      G   D
Yo te he echado de menos.
Em                 C      G   D
Yo te he echado de menos.


Am7               Bm7
Silencio, que mis dedos corren entre tus dedos.
Am7                                       B7
Y con un suave desliz hago que se pare el tiempo.

                Em
Te he echado de menos.
          C
Todo este tiempo
                    G                      D
He pensado en tú sonrisa y en tú forma de caminar
                Em
Te he echado de menos.
             C
He soñado el momento
                   G                  D
De verte aquí a mi lado mio dejandote llevar.


   Dsus4  C9   D/F#  Am7  C7   B7  Bm7
E|---3-----0----2-----0----0----2---2--|
B|---3-----3----3-----1----0----0---3--|
G|---2-----0----2-----0----0----2---2--|
D|---0-----2----0-----2----2----1---4--|
A|---0-----3----0-----0----3----2---2--|
E|---0-----x----2-----0----x----x---x--|
Calificar esta versión:
Aviso: Este fichero es trabajo propio de su transcriptor y representa su interpretación personal de la canción. El material contenido en esta página es para exclusivo uso privado, por lo que se prohibe su reproducción o retransmisión, así como su uso para fines comerciales.
Más versiones de Te He Echado De Menos, Pablo Alborán
Te He Echado De Menos
acordes
Te He Echado De Menos (ver 2)
acordes
Te He Echado De Menos
tablatura
Te He Echado De Menos (ver 2)
tablatura
Descubre más canciones de Pablo Alborán