Mr. Crowley, Ozzy Osbourne (tablatura) (ver 2)

Autor: 666xavier | 17913 visualizaciones



Intro:
|----------------------------------------------------------|
|-------------------------------------------------3-5---5--|
|--------0-2------2-0----0-2--4-5------5-4-2--4-5-----4----|
|-0--2-3------2-------3------------5-----------------------|
|---------------0--------------------3---------------------|
|----------------------------------------------------------|

|---------------------|
|---------------------|
|---------------------|
|-7--8--3--5--3--2--3-|
|---------------------|
|-5--6--1--3--1--0--1-|

|--1-------------------------------------------------------|
|--3-------------------------------------------------------|
|--2---------7--------3---3------------3---3---------------|
|------------7--------3---3------------3---3---------------|
|--------0---5--------1---1----1-3-1-0-1---1---3-----------|
|----------1-----------------------------------------------|

|-1--------------------------------------------------------|
|-3--------------------------------------------------------|
|-2----------7--------3---3------------3---3---------------|
|------------7--------3---3------------3---3---------------|
|--------0---5--------1---1----1-3-1-0-1---1---1-----------|
|----------1-----------------------------------------------|

"Your lifestyle ...
|----------------------------------------------------------|
|-------------------5--6------------------5-6-5-6/8--6-----|
|-5---5----5--------5--5---7----7---------5-7-5-7/9--7-----|
|-5---5----5--------5--7---7----7-----5h7------------------|
|-3---3----3----5-7--------5----5--------------------------|
|-----------------------------------x----------------------|

"you fooled ...  P.M
|----------------------------------------------------------|
|----------------------------------------------------------|
|-5---5-----5--------5---5---3---3-------2-----------------|
|-5---5-----5--------5---5---3---3-------2-----------------|
|-3---3-----3----3-3-3---3---1---1-------0-----------------|
|----------------------------------------------------------|

Riff 1:
|-----------------------------------|
|-3h4p3---3-------------------------|
|-------5---5p3-5-32----------------|
|---------------------5-3-5p3-2-----|
|-------------------------------5---|
|-----------------------------------|

Solo 1:
|------10----------10----------10----------10-----10-------|
|----10--13-10---10--13-10---10--13-10---10--13-10---------|
|-12^---------12^---------12^---------12^------------------|
|----------------------------------------------------------|
|----------------------------------------------------------|
|----------------------------------------------------------|

|-13-10---10--------------------------------------------------|
|------13---13-10-13-10--10-----------------------------------|
|----------------------12--12-10-12-10--10--------------------|
|-------------------------------------12--12-10-12-10--10--10-|
|----------------------------------------------------12--12---|
|-------------------------------------------------------------|

|-----------------------------------13-13-16-15-13-18-181615-20-201817-|
|--------------------10--10-10-13-15-----------------------------------|
|---------10-10-10-12--12----------------------------------------------|
|-12-10-12-------------------------------------------------------------|
|----------------------------------------------------------------------|
|----------------------------------------------------------------------|

|-20--20^~~~~~~~~~~----20^--^-^---^~~~~~~---20--17--20-----|
|----------------------------------------------------------|
|----------------------------------------------------------|
|----------------------------------------------------------|
|----------------------------------------------------------|
|----------------------------------------------------------|

|-171817-------------------181715-17-15------------------------|
|-------201720-171817-20---------------18p17-15-17-1513-15p13-|
|--------------------------------------------------------------|
|--------------------------------------------------------------|
|--------------------------------------------------------------|
|--------------------------------------------------------------|

|-----------------------------------------15^---15-15-15-15-|
|----13-----------------------------------------------------|
|-14----15-12----12-----------------------------------------|
|-------------15----14p12-14~~~~~~~-------------------------|
|-----------------------------------------------------------|
|-----------------------------------------------------------|

|-13-12h13p12----12------------------------|
|-------------15----15^-~~~~~~~~~~~~-------|
|------------------------------------------|
|------------------------------------------|
|------------------------------------------|
|------------------------------------------|

|-13p10--10--10-13p10-10-10--10-13p10--10------13p10--10--10-|
|------13--13--------------13--------13--13-10------13--13---|
|------------------------------------------------------------|
|------------------------------------------------------------|
|------------------------------------------------------------|
|------------------------------------------------------------|

|-13p10--10--10-13p10--10-----13p10--10-----13p10--10------|
|------13--13--------13--13-10-----13--13-10-----13--13-10-|
|----------------------------------------------------------|
|----------------------------------------------------------|
|----------------------------------------------------------|
|----------------------------------------------------------|

|-----------------------------------------5-h6p5---5-------|
|-13-8h108-5-6-53-4-1-/-5-6p5---5h6p5h6--------8---8--^--|
|-------------------------------7--------------------------|
|----------------------------------------------------------|
|----------------------------------------------------------|
|----------------------------------------------------------|

|--------------------------------------------------------------|
|-6-------------6p5--------------------------------------------|
|---7---7~~-7p5-----7p5----------------------------------------|
|-----------------------7p6p5---5h6p5---5-------5p3-------3----|
|-----------------------------8-------8---8-53-----5p3-5---5--|
|--------------------------------------------------------------|

|----------------------------------------------------------|
|----------------------------------------------------------|
|----------------------------------------------------------|
|----------------------------------------------------------|
|-7h8p7----7h8p7----7-----7--p--4---0----------------------|
|---------------------------------------------(fim solo)---|

Riff 2:

|--------------------------------------------|
|-----------------------------------8-10-11--|
|----------------------------7h9h10----------|
|-----------7---------7-8-10-----------------|
|----7-8-10---10-8-10------------------------|
|-10-----------------------------------------|

Pré Solo:
|---------------------------|---5h6-8-5-6------6-5---------|
|-3-------5-6-5---------6-5-|-8-----------8-6--------------|
|-2-----7-------7-5-7-------|------------------------------|
|-0---7---------------------|------------------------------|
|---------------------------|------------------------------|
|---------------------------|------------------------------|

|----------------------5----|------------------------------|
|-3----5h6-8-6-5---------8--|-5--6--8-8/10---8--6--5-------|
|-3--7-----------7----------|------------------------------|
|------------------8--------|------------------------------|
|---------------------------|------------------------------|
|---------------------------|------------------------------|

Solo 2:
|-17p13-------------------18p13----------------------------|
|-------15-(repete 4 X)--------15--(repete 4x)-------------|
|----------------------------------------------------------|
|----------------------------------------------------------|
|----------------------------------------------------------|
|----------------------------------------------------------|

|-15p12------------------17p13-----------------------------|
|-------13-(repete 4x)---------13-(repete 4x)--------------|
|----------------------------------------------------------|
|----------------------------------------------------------|
|----------------------------------------------------------|
|----------------------------------------------------------|

|----------------------------------------------------------|
|-15h16p15h16-16/1816/18-18---16---15---16----------------|
|-15h17p15h17-17/1917/19-19---17---15---17----------------|
|----------------------------------------------------------|
|----------------------------------------------------------|
|----------------------------------------------------------|

|-15---12---------12----9----10----12----13---12-----------|
|-/-----/----11----/----/-----/-----/-----/----------------|
|-/-----/-----/----/----/-----/-----/-----/----------------|
|-/-----/-----/----/----/-----/-----/-----/----------------|
|-------------/--------------------------------------------|
|----------------------------------------------------------|

|-10h12p10h12p10h12-12~~~~~~~---910910910-----------------------------|
|----------------------------------------101110111011-----------------|
|----------------------------------------------------910910910-676767-|
|---------------------------------------------------------------------|
|---------------------------------------------------------------------|
|---------------------------------------------------------------------|

|---------9h10-12-10-12^~~~~~-----5h6p5--5-----------------------|
|-----9h10-----------------------------8---8-6p5-6p5-7-5---------|
|-9h10---------------------------------------------------8p7-5---|
|--------------------------------------------------------------8-|
|----------------------------------------------------------------|
|----------------------------------------------------------------|

|--------------------------------------------56865---------|
|-----------------------------------------568------8-------|
|----------------------------------235-357-----------------|
|-5---------5-7p5---------------235------------------------|
|---8p7p5-8-------8---------135---------------------------|
|-------------------------135------------------------------|

|-5-------------5------------------------------------------|
|---8-6p5-6p5-8---8-----6--5-----232323/353535/65656/86868/|
|----------------------------------------------------------|
|----------------------------------------------------------|
|----------------------------------------------------------|
|----------------------------------------------------------|

|-----------------------------------------------------------|
|/10810810/11101110111011/131113111311-15^------------------|
|-----------------------------------------------------------|
|-----------------------------------------------------------|
|-----------------------------------------------------------|
|-----------------------------------------------------------|

|---------------------------------------171817--17-----------17---------20^-|
|-17h18----------17-18-17-18----------18------20--201817-1820--20-18-17-----|
|-------19~~~~---------------19~~~~~----------------------------------------|
|---------------------------------------------------------------------------|
|---------------------------------------------------------------------------|
|---------------------------------------------------------------------------|

|-18--17--2018172018152018-14-19-1615-13181413161312151211101411-9--|
|---------------------------------------------------------------------|
|---------------------------------------------------------------------|
|---------------------------------------------------------------------|
|---------------------------------------------------------------------|
|---------------------------------------------------------------------|

|-13-105h6p5---5------------------------------------------|
|-------------8---8-6-5---5--------------------------------|
|-----------------------7---7-5---5------------------------|
|-------------------------------8---8-7-8-7---------5------|
|-------------------------------------------7/8-7h8--------|
|----------------------------------------------------------|

|----------------------------------------------------------|
|----------------------------------------------------------|
|----------------------------------------------------------|
|-7--5------------------------------------3----------------|
|-------8--7---5--3--------3/5------5-3-5---5-3-5----------|
|--------------------5-3-1---------------------------------|

|----------------------------------------------------------|
|-------------------------------------6p5------------------|
|---------------------------------5h7----7p5-7~~~~---------|
|-6-3-5-3----------------3--5-5/7--------------------------|
|---------5-3---5--3--5------------------------------------|
|----------------------------------------------------------|

|-5h6p5---5------------------------|
|-------8---8-6-5-6-5--------------|
|---------------------7-5-7-5------|
|-----------------------------8-7--|
|----------------------------------|
|----------------------------------|





Calificar esta versión:
Aviso: Este fichero es trabajo propio de su transcriptor y representa su interpretación personal de la canción. El material contenido en esta página es para exclusivo uso privado, por lo que se prohibe su reproducción o retransmisión, así como su uso para fines comerciales.
Más versiones de Mr. Crowley, Ozzy Osbourne
Mr. Crowley
tablatura
Mr. Crowley (ver 2)
tablatura
Descubre más canciones de Ozzy Osbourne