Iron Man, Ozzy Osbourne (tablatura) (ver 2)

Autor: Facundox | 21086 visualizaciones



esta es una parte de la cancion


1----------------------------------------
2----------------------------------------
3----------------------------------------
4--------------7-6-7-6-7-6---------------
5-----7-7--9-9-------------7-7--9-9------
6--9-------------------------------------

1----------------------------------------
2----------------------------------------
3----------------------------------------
4--------------7-6-7-6-7-6---------------
5-----7-7--9-9-------------7-7--9-9------
6--9-------------------------------------

espero que les  sirva





Calificar esta versión:
Aviso: Este fichero es trabajo propio de su transcriptor y representa su interpretación personal de la canción. El material contenido en esta página es para exclusivo uso privado, por lo que se prohibe su reproducción o retransmisión, así como su uso para fines comerciales.
Más versiones de Iron Man, Ozzy Osbourne
Iron Man
tablatura
Iron Man (ver 2)
tablatura
Iron Man (ver 3)
tablatura
Iron Man (ver 4)
tablatura
Descubre más canciones de Ozzy Osbourne