Crazy Train, Ozzy Osbourne (tablatura) (ver 4)

Autor: elsego | 28395 visualizaciones



1/-------------------------------------------------------/
2/-------------------------------------------------------/
3/-------------------------------------------------------/
4/-------------------0-0------------------------0-0--2-2-/
5/-----0-0------------------------0-0--------------------/
6/-2-2-----0-0--2-2------0-0--2-2-----0-0--2-2-----------/



1/ ----------------------------------/
2/ ----------------------------------/
3/ ----------------------------------/
4/ ----------------------------------/
5/ ----4---5---4------2-------2------/
6/ 2-2---2---2----------5-4-5---5-4-0/





Comentarios del colaborador: la saque yo mismo tengo 1* años

Calificar esta versión:
Aviso: Este fichero es trabajo propio de su transcriptor y representa su interpretación personal de la canción. El material contenido en esta página es para exclusivo uso privado, por lo que se prohibe su reproducción o retransmisión, así como su uso para fines comerciales.
Más versiones de Crazy Train, Ozzy Osbourne
Crazy Train
acordes
Crazy Train
tablatura
Crazy Train (ver 2)
tablatura
Crazy Train (ver 3)
tablatura
Crazy Train (ver 4)
tablatura
Crazy Train (ver 5)
tablatura
Crazy Train
bateria
Descubre más canciones de Ozzy Osbourne