Te Quiero Tanto, Ov7 (tablatura)

Autor: Anónimo | 34434 visualizaciones



aqui les mando esta cancion para que se la dediquen a sus novias y que 
para que canten junto con ella. esta cancion se la dedico a mi amgiga 
iris que alguna vez me pidio que se la dedique en un concierto como 
no pudo estar ahi se la dedico desde la web bueno nos vemos luego 

INTRO: (2X TIMES)

  G              D    D5 D    Am 
|-----3--3--3--0-2---2-0-2--0-0--0---0-0-0-0---0-0-0----------------|
|-----3--3--3--0-3---3-3-3--0-1--1---1-1-1-1---1-1-0----------------|
|-0---0--0--0--0-2---2-2-2--0-2--2---2-2-2-2---2-2-0----------------|
|-0---0--0--0--0-0---0-0-0--0-2--2---2-2-2-2---2-2-0----------------|
|-2---------------------------0--0-----0---0-----0------------------|
|-3-----------------------------------------------------------------|


VERSE 1:

  G         D    D5 D    Am       D    D5 D   G         D    D5 D    Am  
|-----3---0-2---2-0-2--0-0--0---0-2---2-0-2-------3---0-2---2-0-2--0-0--0
|-----3---0-3---3-3-3--0-1--1---0-3---3-3-3-------3---0-3---3-3-3--0-1--1
|-0---0---0-2---2-2-2--0-2--2---0-2---2-2-2---0---0---0-2---2-2-2--0-2--2
|-0---0---0-0---0-0-0--0-2--2---0-0---0-0-0---0---0---0-0---0-0-0--0-2--2
|-2---2------------------0--0-----------------2---2------------------0--0
|-3-------------------------------------------3--------------------------

SI TAL VEZ,       PUDIERAS COMPRENDER,         QUE NO SE COMO EXPRESARME

     D    D5 D   G         D    D5 D    Am       D    D5     Em        D
---0-2---2-0-2-------3---0-2---2-0-2--0-0--0---0-2---2-0-2-------0---0-2-
---0-3---3-3-3-------3---0-3---3-3-3--0-1--1---0-3---3-3-3---0---0---0-3-
---0-2---2-2-2---0---0---0-2---2-2-2--0-2--2---0-2---2-2-2---0---0---0-2-
---0-0---0-0-0---0---0---0-0---0-0-0--0-2--2---0-0---0-0-0---2---2---0-0-
-----------------2---2------------------0--0-----------------2---2-------
-----------------3-------------------------------------------0-----------

BIEN             SI TAL VEZ,        PUDIERA HACERTE VER,     QUE NO HAY 
 
       G          D    D5 D
--2-2--3-3--3---0-2---2-0-2-|
--3-3--3-3--3---0-3---3-3-3-|
--2-2--0-0--0---0-2---2-3-2-|
--0-0--0-0--0---0-0---0-0-0-|
---------2--2---------------|
---------3--3---------------|

OTRA MUJER MEJOR QUE TU PARA MI


VERSE 2 (SAME CHORDS AS ONE):

  G         D    D5 D    Am       D    D5 D   G         D    D5 D    Am
|-----3---0-2---2-0-2--0-0--0---0-2---2-0-2-------3---0-2---2-0-2--0-0--0
|-----3---0-3---3-3-3--0-1--1---0-3---3-3-3-------3---0-3---3-3-3--0-1--1
|-0---0---0-2---2-2-2--0-2--2---0-2---2-2-2---0---0---0-2---2-2-2--0-2--2
|-0---0---0-0---0-0-0--0-2--2---0-0---0-0-0---0---0---0-0---0-0-0--0-2--2
|-2---2------------------0--0-----------------2---2------------------0--0
|-3-------------------------------------------3--------------------------

SI TAL VEZ,       ME HARIAS MUY FELIZ,         SI TAL VEZ, ME LO PODRIAS

     D    D5 D   G         D    D5 D    Am       D    D5 D   Em        D
---0-2---2-0-2-------3---0-2---2-0-2--0-0--0---0-2---2-0-2-------0---0-2-
---0-3---3-3-3-------3---0-3---3-3-3--0-1--1---0-3---3-3-3---0---0---0-3-
---0-2---2-2-2---0---0---0-2---2-2-2--0-2--2---0-2---2-2-2---0---0---0-2-
---0-0---0-0-0---0---0---0-0---0-0-0--0-2--2---0-0---0-0-0---2---2---0-0-
-----------------2---2------------------0--0-----------------2---2-------
-----------------3-------------------------------------------0-----------

DECIR          SI TAL VEZ,        DETALLE A DETALLE,         PUDIERAS 

       G          D    D5 D
--2-2--3-3--3---0-2---2-0-2-|
--3-3--3-3--3---0-3---3-3-3-|
--2-2--0-0--0---0-2---2-3-2-|
--0-0--0-0--0---0-0---0-0-0-|
---------2--2---------------|
---------3--3---------------|

CONQUISTARME SERÍA TUYA      


CHORUS:

  D     G        D          Am              D        G         D        
Am
|-2---------3--0-2---2-2--0-0--0---0-0-0--0-3--3--3--3-3--3--3-3--3---0-0
|-3-----3---3--0-3---3-3--0-1--1---1-1-1--0-2--2--2--3-3--3--3-2--2---0-1
|-2-----0---0--0-2---2-2--0-2--2---2-2-2--0-3--3--3--0-0--0--0-3--3---0-2
|-0-----0---0--0-0---0-0--0-2--2---2-2-2--0-0--0-------0--0----0--0---0-2
|-------2---2---------------0--0-----0-----------------2--2-------------0
|-------3----------------------------------------------3--2--------------

TE QUIERO TANTO, TANTO, TANTO, TANTO, TANTO. CADA DIA UN POCO MAS

              G       D       Am      D     G           D         Am
--0--0-0-0----3--3--3-2--2--0-0--0--0-2--2--3-3--3--3-3-2--2--0-0-0--0--0
--1--1-1-1----3--3--3-3--3--0-1--1--0-3--3--3-3--3--3-3-3--3--0-0-1--1--1
--2--2-2-2----0--0--0-2--2--0-2--2--0-2--2--0-0--0--0-0-2--2--0-0-2--2--2
--2--2-2-2----0--0--0-0--0--0-2--2--0-0--0--0-0--0--0-0-0--0--0-0-2--2--2
--0--0---0----2--2------------0--0------------2--2----------------0--0--0
--------------3--3------------0--0------------3--3-----------------------

         TE QUIERO TANTO, TANTO, TANTO, TAMTO AMOR QUE YA NO PUEDO MAS
 
       D     G           D         Am
-0-0---2--2--3-3--3--3-3-2--2--0-0-0--0--0-|
-1-1---3--3--3-3--3--3-3-3--3--0-0-1--1--1-|
-2-2---2--2--0-0--0--0-0-2--2--0-0-2--2--2-|
-2-2---0--0--0-0--0--0-0-0--0--0-0-2--2--2-|
-0-0-----------2--2----------------0--0--0-|
---------------3--3------------------------|

       QUE YA NO PUEDO MAS

un agradecimiento a leopoldo varela que el fue el que transcribio esta cancion 
y a la pagina de www.guitartabs.cc





Calificar esta versión:
Aviso: Este fichero es trabajo propio de su transcriptor y representa su interpretación personal de la canción. El material contenido en esta página es para exclusivo uso privado, por lo que se prohibe su reproducción o retransmisión, así como su uso para fines comerciales.
Más versiones de Te Quiero Tanto, Ov7
Te Quiero Tanto
acordes
Te Quiero Tanto (ver 2)
acordes
Te Quiero Tanto (ver 3)
acordes
Te Quiero Tanto (ver 4)
acordes
Te Quiero Tanto (ver 5)
acordes
Te Quiero Tanto (ver 6)
acordes
Te Quiero Tanto
tablatura
Te Quiero Tanto
bateria
Descubre más canciones de Ov7