Lejos De Ti, Orquesta Candela (tablatura)

Autor: XkvnforceX | 23743 visualizaciones

LEJOS DE TI:
e|---------------------------2-4-5-4-2------2-4-5-4-2--------2-4-5-2-|
B|-------------------------------------------------------------------|
G|------2---------2--------------------------------------------------|
D|-2/4----4---2/4----4-----------------------------------------------|
A|-2/4----4---2/4----4-----------------------------------------------|
E|-------------------------------------------------------------------|
E F#m Fm
e|---------5-5/4--5-5/7----------2-2-1/2------------------|
B|-------5--------7-7/9----------2-2-1/2------------------|
G|--2/6--------------------------2-2-1/2------------------|
D|-------------------------------4-4-3/4------------------|
A|-------------------------------4-4-3/4------------------|
E|-------------------------------2-2-1/2------------------|

F#m D A E x2

F#m D
Hace tiempo que mi vida no tiene valor
F#m D A
Será porque dentro mío llevo un gran dolor
E b
Tú decidiste no volver
F#m E
Aquella noche yo morí

F#m D A
Desde esa noche nunca más volví a reír
F#m D A
Llevo dentro el castigo de no serte fiel
E b
Parece que ahora si entendí
F#m E A
Que te he perdido para siempre

D A E
Como te digo que me enseñes a vivir
A D A E
Si cada noche me muero de recordar

F#m
Tu gran amor
D
Tu triste adiós
A E
Hay tu cariño, Aun vive en mí

F#m
No puedo más
D
Vivir sin ti
A E
Lejos de ti, Voy a morir


F#m D
Lejos de ti, Voy a morir
A E
Hay como duele, Vivir sin ti x2
Calificar esta versión:
Aviso: Este fichero es trabajo propio de su transcriptor y representa su interpretación personal de la canción. El material contenido en esta página es para exclusivo uso privado, por lo que se prohibe su reproducción o retransmisión, así como su uso para fines comerciales.
Más versiones de Lejos De Ti, Orquesta Candela
Lejos De Ti
acordes
Lejos De Ti
tablatura
Descubre más canciones de Orquesta Candela