Stand By Me, Oasis (tablatura)

Autor: xxblackxpinkxx | 20997 visualizaciones

			     'STAND BY ME' - Oasis
xxxxxxxxxxxxxxxxxxxxxxxxxxxxxxxxxxxxxxxxxxxxxxxxxxxxxxxxxxxxxxxxx
*Por: Sebas A.
*Email msn por cualquier duda: playing.the.angel_@hotmail.com
*buenos aires, argentina, 2007
*me gusta mucho esta canción, es simple pero pegadiza, el grupo no me gusta tanto pero admito que esta canción es la mejor.

___________________________________________________________

DIAGRAMA DE ACORDES -los menos conocidos, los demas ya todos los sabemos ;) -:

  B7   A7     F#
e|2-----x------2----/
B|0-----2------2----/
G|2-----0------3----/
D|1-----2------4----/
A|2-----0------4----/
E|x-----x------2----/

___________________________________________________________
INTRO:
e|---------------------------------------------------------------------------|
B|---------------------------------------------------------------------------|
G|---------------------------------------------------------------------------|
D|---------------------------------------------------------------------------|
A|---------------------------------------------------------------------------|
E|12///////3vibrato----------------------------------------------------------

e|------------------------------
B|------------------(15)--------
G|------12----12-14br-12v---11--
D|12-14----14-------------------
A|------------------------------
E|------------------------------
[repite lo anterior, basicamente esta cancion (y casi TODAS las de oasis usan esas notas nada mas, esta en la escala de Mi)]


VERSOS:
G                       B7                   C
 Made a meal and threw it up on Sunday I've -
                           D
Gotta lot of things to learn
Said I would and I'll be leaving one day -
Before my heart starts to burn



PUENTE:
e|-------------
B|-------------
G|12///0-------
D|x------------
A|10///0-2-3v--
E|-------------

C                           D
 So what's the matter with you?
G            F#       Em
  -Sing me something new... don't you know
A7
 The cold and wind and rain don't know
                                 D
They only seem to come and go away


VERSOS:
Times are hard when things have got no meaning
I've found a key upon the floor
Maybe you and I will not believe in the things we find
Behind the door

ESTRIBILLO:
G          D             Am                       (C F F#)
 Stand by me - nobody knows the way it's gonna be
Stand by me - nobody knows the way it's gonna be
Stand by me - nobody knows the way it's gonna be

If you're leaving will you take me with you
I'm tired of talking on my phone
There is one thing I can never give you
My heart can never be your home

________________________________________________________

REFERENCIAS:

| /  slide
| v  vibrato
| x  Mute note
|(x) Nota opcional a tocar, no está en la cancion original, pero queda mejor (una sugerencia mía)
| br Bend & Release
===============================================================================
Calificar esta versión:
Aviso: Este fichero es trabajo propio de su transcriptor y representa su interpretación personal de la canción. El material contenido en esta página es para exclusivo uso privado, por lo que se prohibe su reproducción o retransmisión, así como su uso para fines comerciales.
Más versiones de Stand By Me, Oasis
Stand By Me
acordes
Stand By Me (ver 2)
acordes
Stand By Me (ver 3)
acordes
Stand By Me (ver 4)
acordes
Stand By Me (ver 5)
acordes
Stand By Me
tablatura
Stand By Me (ver 2)
tablatura
Stand By Me
video guitarra
Descubre más canciones de Oasis