Little By Little, Oasis (acordes) (ver 3)

Autor: luisssss | 34685 visualizaciones

acddadd9emg
INTRO   C G -  Emmad9  A  x2


verse

Emmad9                             A 
WE THE PEOPLE FIGHT FOR OUR EXISTENCE
Emmad9                                   A 
WE DON´T CLAIM TO BE PERFECT BUT WE´RE FREE
Ennad9                                    A 
WE DREAM OUR DREAMS ALONE WITH NO RESISTANCE
Ennad9                            A 
FADING LIKE THE STARS WE WISH TO BE

D                      
YOU KNOW I DIDN´T MEAN
              Dadd9  G
WHAT I JUST SAID 
Em
BUT MY GOD WOKE UP
                          A 
ON THE WRONG SIDE OF HIS BED
AND IT JUST DON´T MATTER NOW


G             D
LITTLE BY LITTLE
A                       Em           Dadd9
WE GAVE YOU EVERYTHING YOU EVER DREAMED OF
G             D
LITTLE BY LITTLE
A                          Em               Dadd9
THE WHEELS OF YOUR LIFE THEY´RE SLOWLY FALLING OFF
G             D
LITTLE BY LITTLE
A                      Em           Dadd9
YOU HAVE TO GIVE IT ALL WITH ALL YOUR LIFE
G             D        C              G
AND ALL THE TIME, I JUST ASK MYSELF WHY
            A 
YOU´RE REALLY HERE

verse

TRUE PERFECTION HAS TO BE IMPERFECT
I KNOW THAT THAT SOUNDS FOOLISH BUT IT´S TRUE
THE DAY HAS COME AND NOW YOU´LL HAVE TO ACCEPT
THE LIFE INSIDE YOUR HEAD WE GIVE TO YOU

YOU KNOW I DIDN´T MEAN
WHAT I JUST SAID
BUT MY GOD WOKE UP
ON THE WRONG SIDE OF HIS BED
AND IT JUST DON´T MATTER NOW

LITTLE BY LITTLE
WE GAVE YOU EVERYTHING YOU EVER DREAMED OF
LITTLE BY LITTLE
THE WHEELS OF YOUR LIFE THEY´RE SLOWLY FALLING OFF
LITTLE BY LITTLE
YOU HAVE TO GIVE IT ALL WITH ALL YOUR LIFE
AND ALL THE TIME, I JUST ASK MYSELF WHY
YOU´RE REALLY HERE


A [ritmo de la cancion ] G D    HEY!
A [ritmo de la cancion]  G D 
D [ritmo de la cancion] C G
D [ritmo de la cancion ]  A [rasgeos hacia abajo ]


LITTLE BY LITTLE
WE GAVE YOU EVERYTHING YOU EVER DREAMED OF
LITTLE BY LITTLE
THE WHEELS OF YOUR LIFE THEY´RE SLOWLY FALLING OFF
AND LITTLE BY LITTLE
YOU HAD TO GIVE IT ALL WITH ALL YOUR LIFE
G             D       A              Em
AND ALL THE TIME, I JUST ASK MYSELF WHY
          Dadd9
YOU´RE REALLY HERE


WHY AM I REALLY HERE? repites  G D A Em Dadd9 varias veces



terminas con G D A C G [ ritmo de la cncion ]  y  D

Outro:

G D G D G D G [un rageo hacia abajo x acorde suigiendo el tiempo de la cancion]


empieza un arpegio


e---------0-----0--------------0-----0-----------
B-----3-----3-----3--------3-----3-----3---------
G---2---2-----2-----2----0---0-----0-----0----
D-0------------------------------------------
A----------------------2---------------------
E--------------------------------------------

e---------0-----0--------------0-----0----------------------
B-----3-----3-----3--------3-----3-----3---------------------
G---3---3-----3-----3----0---0-----0-----0---------------
D-0-------------------------------------------------------
A----------------------2----------------------------------
E--------------------------------------------------------

e---------0-----0---------------0-----0------------------
B-----3-----3-----3---------3-----3-----3-----------------
G---2---2-----2-----2-----0---0-----0-----0----------------
D-0-------------------------------------------------------
A-----------------------2---------------------------------
E--------------------------------------------------------

e---------0-----0--------------0------0------0------0-------
B-----3-----3-----3--------3-----3------3------3------3------
G---3---3-----3-----3----0---0-----0------0------0------0-----
D-0-------------------------------------------------------
A----------------------2----------------------------------
E--------------------------------------------------------


y finalizan con D [ tocan cuerda x cuerda desde la cuarte ]


Es una cancion muy buena espero y loes guste [y] escuchen bn la cancion para sakar el ritmo
Calificar esta versión:
Aviso: Este fichero es trabajo propio de su transcriptor y representa su interpretación personal de la canción. El material contenido en esta página es para exclusivo uso privado, por lo que se prohibe su reproducción o retransmisión, así como su uso para fines comerciales.
Más versiones de Little By Little, Oasis
Little By Little
acordes
Little By Little (ver 2)
acordes
Little By Little (ver 3)
acordes
Little By Little (ver 4)
acordes
Descubre más canciones de Oasis