Yo Te Voy A Amar, N'Sync (tablatura) (ver 2)

Autor: Anónimo | 32321 visualizaciones

Weno aki ls prsnto la tablatura d sta kncion k s la version n
spañol d "This promise you". He visto otras tabs, pro no m
convncn; sta es la más pro ps como la warner!!!.
Scribanm para cualkir consulta o error n la tab, etc, al
javio_c14@hotmail.com (No c dsprn si no contsto rapido
pro = respondo :p)Un saludo pa toda mi gnt d Perú!
EzoOO!! Xupen pisco sour, no las otras wbadas q parcn emolients!


*ACORDES PARA ESTA CANCIÓN:

                  E A D G B E
        D         x x 0 2 3 2
        A         x 0 2 2 2 0
        Bm7       x 2 4 2 3 2
        G         3 2 0 0 0 2
        Gmaj9     3 x 4 4 3 5
        A2        x 0 2 2 0 0
        G(9)      3 x 0 2 0 3
        Asus      x 0 2 2 3 0
        Em7       0 2 2 0 3 0
        A7        x 0 2 0 2 0
        A/C#      x 4 2 2 2 x
        Gm6       3 x 0 3 3 0
        D/A       x 0 0 2 3 2
        C#m7      x 4 6 4 5 4
        E/B       x 2 2 1 0 0
        Amaj9     x 0 2 4 2 4
        A/E       x x 2 2 2 0

p: es igual al "h" solo que descendente... lol

**Intro:
----------------------------------------------
----------------------------------------------
--------11------9---7-7-9-11-12-11h12p11-9--7-
----6/7-----6/7-------------------------------
----------------------------------------------
----------------------------------------------

---------------------------------
---------------------------------
-------7-7/9---7-6h7p6-----------
-----7-----------------9----0h7/9
---------------------------------
---------------------------------

**Verso 1:
(ste vrso s n punteo, pro si no kieren tokarla asi,
abajo stan los acords (ocioso e...merda!!).)

---------------------------------2--
----------5---------------3---------
----4---2-----------4-6-------4-----
------2---------------------4-------
------------------------------------
------------------------------------
           Cuando...

-----------------------------
----------------------3-----2
--4-2-2---0--4------------4-- (2 veces) Luego:
--------0---------------4----
-----------------------------
-----------------------------

--------------------------------------------------------------
----------------------10--------------------------------------
-----10/11------8/9-----------11--------------10/11----8/9----
------------------------------------12------------------------
--------------------------------------------------------------
--------------------------------------------------------------
..Abrazaré...olvidar...lo que te....sufrir.....caer...junto a mí

---------------
---------------
--7-7-6h7p6----
------------9-7
---------------
---------------

 A2                Bm7
Cuando sientas tristeza
G(9)          Asus A
que no puedas calmar
 A2              Bm7
cuando haya un vacío
G(9)          Asus A
que no puedas llenar


Em7
te abrazaré
A7
te haré olvidar
D         A/C#    Bm7
Lo que te hizo sufrir
  Em7
No vas a caer
   Gm6              Asus   Asus A
mientras estés junto a mi


**Coro:

 D
Si siente frío
    A
tu corazón
Bm7                   G        D/A
Seré tu abrigo, tu ilusión
                  A
Hasta ya no respirar
      Gmaj9
Yo te voy a amar
      D
Yo te voy a amar

**Verso 2:

A2               Bm7
Yo siempre te he amado
G(9)         Asus  A
Y amor yo estaré
A2            Bm7
por siempre a tu lado ooh
G(9)           Asus  A
nunca me alejaré  eeeeeh
Em7
Prometo mi amor
A7
te juro ante Dios (te juro ante Dios)
D         A/C#     Bm7
Nunca te voy a faltar
Em7
tu corazón
Gm6               Asus  A
no volverá a lloraaaaaaaarr

D
Si siente frío (si siente frío)
A
tu corazón (tu corazón oon)
Bm7                G
Seré tu abrigo tu ilusión  oohh
 D/A            A
Hasta ya no respirar
      Gmaj9
yo te voy a amar
                D
yo te voy a amaaaaar

**Puente:

Em7          A
Sigo muriendo por ti iiii
Em7             A
Yo te quiero así
   D      A            G
sin tu amoooor (en mi vida) mi vida
       Em7           Asus  A
No se como podré yo vivir


**Coro: (ahora con diferentes acordes):
E
Si siente frío (si siente un frío)
B
Tu corazón (tu corazón)
C#m7              A
Seré tu abrigo, tu ilusión (tu ilusióoonn)
E/B              B
Hasta ya no respirar
          A
yo te vooy a amar aaaahh
E
Si no te amaría
  B
No viviré (te iventaré)
    C#m7            A
Si no canto como te voy a querer  [ohhhhh]
E/B              B
Hasta ya no respirar
          Amaj9
yo te voy a amar

**Final:

E                B
Hasta ya no respirar
          Amaj9
yo te voy a amar
          E         A/E   E   A/E  E
yo te voy a amaaaaaar----------- (uhhh)

///Ojala q ls haya gustado, sino c van a la rewinnie poohh!!!///
Calificar esta versión:
Aviso: Este fichero es trabajo propio de su transcriptor y representa su interpretación personal de la canción. El material contenido en esta página es para exclusivo uso privado, por lo que se prohibe su reproducción o retransmisión, así como su uso para fines comerciales.
Más versiones de Yo Te Voy A Amar, N'Sync
Yo Te Voy A Amar
acordes
Yo Te Voy A Amar (ver 2)
acordes
Yo Te Voy A Amar
tablatura
Yo Te Voy A Amar (ver 2)
tablatura
Descubre más canciones de N'Sync