Cuando El Angel, Novel (acordes) (ver 2)

Autor: alex0395 | 27110 visualizaciones

amcg
Intro:

E |----------0-------------------3---------------3--3---|
B |------3-----3------3------0h1---1-------------3--3---|
G |----0---0--------0----------------------------0--4---|
D |------------------------2----------2--------2----5---|
A |---------------2------0---------------0-2-3------5---|
E |--3----------------------------------------------3---|

E |------------------------------------------|
B |------------------------------------------|
G |------------------------------------------|
D |-----5-5-5-4-5-4-2----5-5-5-4-5-4-2-------|
A |-------------------0----------------3-----|
E |--3------------------------------------3--|

G, Am, C, G

Verso 1:

E |--------------------------------------------------------|
B |--------------------------------------------------------|
G |--------------------------------------------------------|
D |--5-5-5-4-5-4-2----5-5-5-4-5-4-2----5-5-5-4-5-4-2-------|
A |---------------------------------0----------------3-----|
E |----------------3------------------------------------3--|

G             Am
 Tanto esperar la mujer ideal
C             G
 Mirando al suelo
G          Am
 Algo paso dios me escucho
C                       G
 Me mando un ángel del cielo
Am                      C
 Lo increíble de la historia
                       G
Besarla me enseña la gloria

Coro:
G                   Am
Cuando el ángel sonríe
                   C                     G
Mi mundo no esta triste y el amor crece más
G                   Am
Cuando el ángel sonríe
                    C                         G
Me hace sentir tan libre que no importa nada mas

E |--10-10-10--8-8--7-7--5-5-5--3--|
B |------------------------------------|
G |------------------------------------|
D |------------------------------------|
A |------------------------------------|
E |------------------------------------|

G, Am, C, G x2

Verso 2:
G                   Am
 Si esto es un sueño es tan perfecto
C                     G
 Que no quiero despertar

Coro:
G                   Am
Cuando el ángel sonríe
                   C                     G
Mi mundo no esta triste y el amor crece más
G                   Am
Cuando el ángel sonríe
                    C                         G
Me hace sentir tan libre que no importa nada mas

E |--10-10-10--8-8--7-7--5-5-5--3--|
B |------------------------------------|
G |------------------------------------|
D |------------------------------------|
A |------------------------------------|
E |------------------------------------|

G
Cuando el ángel sonríe
Am
Cuando el ángel sonríe
C                 G
 No importa nada más
G
Cuando el ángel sonríe
Am
Cuando el ángel sonríe
C                 G
 No importa nada más

Comentarios del colaborador: espero les haya servido (fuente original) la cuerda.net) oigan d vdd esta banda es muy buena! hay qe apoyarla!

Calificar esta versión:
Aviso: Este fichero es trabajo propio de su transcriptor y representa su interpretación personal de la canción. El material contenido en esta página es para exclusivo uso privado, por lo que se prohibe su reproducción o retransmisión, así como su uso para fines comerciales.
Más versiones de Cuando El Angel, Novel
Cuando El Angel
acordes
Cuando El Angel (ver 2)
acordes
Descubre más canciones de Novel