Y Me Dices Que Te Tienes Que Marchar, Norecomendable (acordes)

Autor: Anónimo | 37795 visualizaciones

ffag


Esta cancion es la primera que saco en guitarra, y este merito
[ojo no la letra de la cancion] q aunq se no es muxo se lo dedico
a zoila, cn la paciencia q dices q t suelo tener y cn el amor q
m enseñast a dcir q nunk se va a perder.


... imagínate que estás muy enamorado y que se acerque tu pareja y te
diga 'no estoy enamorada de ti, creo que he cometido un error', y
tú dices ' y todo lo que siento por ti? todo lo que he hecho por
ti?' y ella te dice que se tiene que marchar, y entonces tú le
dices esto:

C*                       Am*
Cuéntame, si todo lo que yo sentí,
               Em*
si todo por lo cual viví,
                  F     G
no viene al caso ahora.

C*                        Am*
Dices que te diste cuenta de tu error
                Em*
sabiendo cuán feliz
                     F     G
estoy en tus brazos ahora,
     F             G             
y me dices que te tienes que marchar.


...y te agarra del hombro y te dice 'pero cálmate, podemos
ser amigos', [webadas!!!], y te agarra del hombro y tú le dices:

C*                      Am*
Déjame, si ya no tienes qué sentir
               Em*
no tienes para qué vivir,
                      F    G
más ayuda el que no estorba.


C*                          Am*
Y no sé si es justo pero es lo que hay
                   Em*
no tengo miedo a improvisar,
                           F    G
ya no hay planes ya no hay formas,
     F             G             
y me dices que te tienes que marchar,
     F             G             
y me dices que te tienes que marchar.
                            e|-----------------------3--|
                            b|---------5------------5---|
                            g|-------5---5---------5----|
                            d|-----5-------5------5-----|
                            a|---3----------------------|
                            E|--------------------------|

Notas:
     C*     Am*    Em*    Fa     G      
e|---3------3------3------1------3------3---|
b|---1------1------0------1------3------5---|
g|---0------2------0------2------4------5---|
d|---2------2------2------3------5------5---|
a|---3------0------2------3------5------3---|
E|---0------0------0------1------3------3---|


izz! -_-





Calificar esta versión:
Aviso: Este fichero es trabajo propio de su transcriptor y representa su interpretación personal de la canción. El material contenido en esta página es para exclusivo uso privado, por lo que se prohibe su reproducción o retransmisión, así como su uso para fines comerciales.
Más versiones de Y Me Dices Que Te Tienes Que Marchar, Norecomendable
Y Me Dices Que Te Tienes Que Marchar
acordes
Y Me Dices Que Te Tienes Que Marchar (ver 2)
acordes
Descubre más canciones de Norecomendable