Voy, No Te Va Gustar (bajo)

Autor: Anónimo | 17242 visualizaciones

intro.
G|------------5------|
D|-5-7-65-5-7--57-77-|
A|-------------------|
E|-------------------|

desafortunadamente estoy...
G|555-----------77-----5--|
D|----77----7-6----7-5----| x10
A|-------99---------------|
E|------------------------|

ese mar...
G|-------------------------------------|
D|--7-5-55----55-44-33--5-3-33-22-11---|
A|-7--------77---------5---------------|
E|-------------------------------------|

G|-------------------------------------------------------0--|
D|--7-5-55----55-44-33--------------------------------------|
A|-7--------77----------55----55-44-33---33----33-22-11-----|
E|-------------------------77---------------55--------------|

no existe miedo...
G|555-----------77-5-7-|
D|----77----7-6--------| x2
A|-------99------------|
E|---------------------|

final
G|-77--55----------|
D|---------77-5-78-|
A|-----------------|
E|-----------------|

bueno por ahi no estan tan bien los tiempos pero si la tocan escuchando
el tema sale... chauuu
george_filth@hotmail.com
Aviso: Este fichero es trabajo propio de su transcriptor y representa su interpretación personal de la canción. El material contenido en esta página es para exclusivo uso privado, por lo que se prohibe su reproducción o retransmisión, así como su uso para fines comerciales.

Comentarios en Facebook: