Verte Reir, No Te Va Gustar (acordes)

Autor: tuti_callejero | 30612 visualizaciones

abmdfsosfsosmggm
 
D                    F#m    F#
    No se si escuchas
Bm                  G
    o quizas ya no sirve de nada
D                F#m   F#
    Solo murmuras
Bm                 G
    Solo me das vuelta la cara
D          F#m    F#
   Ayer nomás
Bm                  G
   Tu sol me entusiasmaba
D                    F#m    F#
   No llorabas por Mi 
Bm                  G
   No llorabas por nada
        D                      F#m    F#    Bm           G
   Dejaste que el dolor te curtiera la piel ojalá no sea tarde
D                 F#m   F#    Bm         G
   Para volver a nacer, para poder levantarte
F#             Bm            A                        D
      Me encantaria, que estuvieras dormida, que estuvieras dormida
F#             Bm              G        Gm
      Me encantaria, volver a verte reir, como me gusta verte reir

Solo: Mientas hace el solo, hay una base de acordes igual que la estrofa !!!   D F#m F# Bm G

No tengo muy en claro como se ponen las estiras de cuerda, 
asi que pongo un * [asterisco] cuando hay una !!!

E |--------------------------------------------||
B |----5*--3-2-2/3/2----------8-8-8-10*--8-7---||
G |------------------3-4-----------------------||   x 2
D |--------------------------------------------||
A |--------------------------------------------||
E |--------------------------------------------||


       D                      F#m    F#    Bm           G
   Dejaste que el dolor te curtiera la piel ojalá no sea tarde
D                 F#m   F#    Bm         G
   Para volver a nacer, para poder levantarte
F#             Bm            A                        D
      Me encantaria, que estuvieras dormida, que estuvieras dormida
F#             Bm              G        Gm
      Me encantaria, volver a verte reir, como me gusta verte
F#             Bm            A                        D
      Me encantaria, que estuvieras dormida, que estuvieras dormida
F#             Bm              G        Gm
      Me encantaria, volver a verte reir, como me gusta verte

D   F#m   F#   Bm   G
		      Como me gusta verte
D
		      No se si escuchas, o quizás ya no sirve de nada,
D
	              Que estuvieras dormida, me encantaria
D
	              Que estuvieras dormida, me encantaria

Final:                             D
	e |------------------------X---||
	B |---7--------------------7---||
	G |-----7------------------7---||
	D |-------7--7/9-7/9-7/9---7---||
	A |------------------------5---||
	E |------------------------X---||

Acordes:      D  F#m  F# Bm   G  Gm
	e |---x---2---2---2---3---3---||
	B |---7---2---2---3---3---3---||
	G |---7---2---3---4---4---3---||
	D |---7---4---4---4---5---5---||
	A |---5---4---4---2---5---5---||
	E |---x---2---2---x---3---3---|| 

Comentarios del colaborador: la cuerda.net

Calificar esta versión:
Aviso: Este fichero es trabajo propio de su transcriptor y representa su interpretación personal de la canción. El material contenido en esta página es para exclusivo uso privado, por lo que se prohibe su reproducción o retransmisión, así como su uso para fines comerciales.
Más versiones de Verte Reir, No Te Va Gustar
Verte Reir
acordes
Verte Reir
tablatura
Verte Reir
bajo
Descubre más canciones de No Te Va Gustar