Religión Pagana, No Te Va Gustar (acordes)

Autor: Anónimo | 42638 visualizaciones

aasosambmdfsosmg
Hola! Les traigo este buen tema del nuevo CD de No te va gustar!
"El calor del pleno invierno"

Intro
   D           Bm         F#m     A                   D
e|------------------------------------------------------------2
B|---7--5-----------------------------------------------------3
G|-----------7--6--4------------------------------------------2
D|---------------------7--5--4--7-----------------------------0
A|----------------------------------------------------2--4--5--
E|-----------------------------------0--0--2--3--5-------------

D              Bm               F#m         A
  Todo lo que fui, o lo que creí tener, se va
D             Bm             F#m          A
  a veces no vi, a veces no quise verte más
D              Bm                 F#m
  quisiera dormir, quisiera hacerme valer,
       A
encontrarle solución a todo
D              Bm                F#m
  tengo que salir, tengo que volver a ser,
     A                         F#m
escucharte y encontrar el modo


F#m         G             D            A
    Tengo siempre tantas dudas y una verdad…

D                     Am     G
  Mueve, une, sana y calmaaahh
D                   Am     G
  música llenás mi almaaahh


Intro


D          Bm            F#m    A
  No es la voz de mi conciencia, pero me puede guiar
D         Bm             F#m    A
  no es medicina, no es ciencia, pero me sabe curar


F#m         G              D           A
    Tengo siempre tantas dudas y una verdad…

D                    Am     G
  Mueve, une, sana y calmaaahh
D                  Am     G
  música llenás mi almaaahh


Solo: [D - Am - G] x2

Bm - A#

Bm                         A#
Es el aire, es el sol que entra en mi ventana
Bm                              A#
rindo un culto y es a vos, mi religión pagana

F#m        G              D           A
   Tengo siempre tantas dudas y una verdad…


D                    Am     G
  Mueve, une, sana y calmaaahh
D                  Am     G
  música llenás mi almaaahh
D                    Am     G
  Mueve, une, sana y calmaaahh
D                  Am     G
  música llenás mi almaaahh

   D            Bm         F#m     A                  D
e|------------------------------------------------------------2
B|---7--5-----------------------------------------------------3
G|-----------7--6--4------------------------------------------2
D|---------------------7--5--4--7-----------------------------0
A|----------------------------------------------------2--4--5--
E|-----------------------------------0--0--2--3--5-------------


Bueno espero que les sirva.
Este tema se lo dedico a mi abuelo Roberto
quien fue el que me impulso hace años a tocar la guitarra.
Sigan con la viola!.
Facundo Beutler.
Aviso: Este fichero es trabajo propio de su transcriptor y representa su interpretación personal de la canción. El material contenido en esta página es para exclusivo uso privado, por lo que se prohibe su reproducción o retransmisión, así como su uso para fines comerciales.

Comentarios en Facebook: