Me Cuesta Creer, No Te Va Gustar (bajo)

Autor: Anónimo | 30898 visualizaciones

Verso sin bajo; intro


VERSO CON BAJO:   Grove:

Arranca inmediatamente despues de
"...es una especie jodida la tuya, la mia tambien..."

   NOTA LA;
G|---------------------------------------------|      |
D|---------------------------------------------|      |
A|-----7--6--7------7--6--7--6-7---------------|      |
E|--5------------5-----------------------------|      |
                                                      |
  NOTA RE;                                            |
G|---------------------------------------------|      |
D|---------------------------------------------|      |
A|--5-----------5------------------------------|      |
E|-----5--4--5-----5--4--5--4-5----------------|      |
                                                      |      X 2
  NOTA MI AL AIRE Y LUEGO EL MI EN LA CUERDA DOS ;    |
G|---------------------------------------------|      |
D|---------------2-----------------------------|      |
A|-----2--1--2------2--1--2--1-----------------|      |
E|--0------------------------------------------|      |
                                                      |
  RIFF IGUAL AL PRIMERO;                              |
G|---------------------------------------------|      |
D|---------------------------------------------|      |
A|-----7--6--7------7--6--7--6-7---------------|      |
E|--5------------5-----------------------------|      |


ESTRIBILLO ;

[| G | G   | C   |  C  |         Solo tocar la nota que indica, el 7
 | E |  E7 | A-  |  A- |         y el menor es la melodia para guitarra.
 | G |  G  | C   |  C  |         Va con semi corcheas,
 | F7 | E7 | A-  |  A- |]        osea cada un tiempo
                                 toco cuatro veces
                                 la nota.

Solo de Guitarra ;

[| F7  |  F7  |  E7  | E7  |     mismas aclaraciones que antes.


ESTRUCTURA ;

VERSO SIN BAJO

VERSO (CON BAJO)

ESTRIBILLO

VERSO X 2

ESTRIBILLO

SOLO GUITARRA

VERSO

ESTRIBILLO



Espero que les haya gustado, trate de hacerlo lo mas facil
completo posible
cualquier cosa
ESTILOPROPIO17@hotmail.com

Sebastián.
Aviso: Este fichero es trabajo propio de su transcriptor y representa su interpretación personal de la canción. El material contenido en esta página es para exclusivo uso privado, por lo que se prohibe su reproducción o retransmisión, así como su uso para fines comerciales.

Comentarios en Facebook: