Cero A La Izquierda, No Te Va Gustar (acordes)

Autor: Anónimo | 22499 visualizaciones

abcsosmefsosm
C#m
e|-----3--------------------------------|
B|-----4--------------------------------|
G|-----5--------------------------------|
D|-----5--------------------------------|
A|-----3--------------------------------|
E|-----x--------------------------------|

                 B
e|-----3--------------------------------|
B|-----4--------------------------------|
G|-----5--------------------------------|
D|-----5--------------------------------|
A|-----3--------------------------------|
E|-----x--------------------------------|

                 A 
e|-----0--------------------------------|
B|-----2--------------------------------|
G|-----2--------------------------------|
D|-----2--------------------------------|
A|-----0--------------------------------|
E|-----x--------------------------------|

                 
                 E
e|-----0--------------------------------|
B|-----0--------------------------------|
G|-----1--------------------------------|
D|-----2--------------------------------|
A|-----2--------------------------------|
E|-----0--------------------------------|

Intro
e|--------------------------------|
B|--------------------------------|
G|--------------------------------|
D|--------------------------------|
A|-------2-----------2/4-2--------|
E|-0-5-4---5-4-2-4-5-------5-4-0--|

Riff 1
e|--------------------------------------|
B|--------------------------------------|
G|-----1--------------------------------|
D|-2-4-----2-4-2-1-1-2---1-2-2/6-4-2-1--|
A|-------2-------------4----------------|
E|--------------------------------------|

C#m                    B
Todos debemos un día mirar para adentro
C#m                   B
Para ver, hay que mirar,
C#m                  B
Llevo mas de dos intentos
A                            B
Y no me puedo curar, no me puedo curar.

C#m              B
Para salir, no hay que golpear
C#m                            B
Si nunca fui bien recibido, no sé qué hago acá.
C#m                 B
Hoy me despido de todo
          A 
Todo lo que me hizo mal
          B
Todo lo que me hizo mal.

E                                  B
Yo quiero estar a la izquierda del cero
F#m          C#m           B
No me analices, no voy a cambiar
E                                        B
Yo sé que no siempre gana el que pega primero
F#m        C#m          B
Pero no sirve dejarse pegar.

C#m                      B
Que frágil es mi mundo de nuevo
C#m                      B
Esa es la base de mi soledad
C#m                       B
Que fácil es señalarme con el dedo
             A                 B
Y yo sin poderte mirar, sin poderte mirar.

E                                  B
Yo quiero estar a la izquierda del cero
F#m          C#m           B
No me analices, no voy a cambiar
E                                        B
Yo sé que no siempre gana el que pega primero
F#m        C#m          B
Tampoco no sirve dejarse pegar.

E                                  B
Yo quiero estar a la izquierda del cero
F#m          C#m           B
No me analices, no voy a cambiar
E                                        B
Yo sé que no siempre gana el que pega primero
F#m        C#m          B
Tampoco no sirve dejarse pegar.

Riff 1 / Vientos
e|------------------------------------------------|
B|---------5-4-5-4-2-5-4-2-5-5-4-4----------------|
G|-4-4-1-4----------------------------------------|
D|------------------------------------------------|
A|------------------------------------------------|
E|------------------------------------------------|

E / B / F#m / C#m / B x 3 E

Comentarios del colaborador: Es El Primer Tema Que Subo Espero Que Les Guste c:

Aviso: Este fichero es trabajo propio de su transcriptor y representa su interpretación personal de la canción. El material contenido en esta página es para exclusivo uso privado, por lo que se prohibe su reproducción o retransmisión, así como su uso para fines comerciales.
Más versiones de Cero A La Izquierda, No Te Va Gustar
Cero A La Izquierda
acordes
Cero A La Izquierda
tablatura
Cero A La Izquierda
bajo
Descubre más canciones de No Te Va Gustar

Comentarios en Facebook: