Aneurysm, Nirvana (bajo)

Autor: franco_tatengue88 | 37852 visualizaciones

Intro
G-|------------------------------------|
D-|*----------------------------------*| repeat(12x)
A-|*---------3-3-3-3-2-2-2-2-0-0-0-0--*| 
E-|--2-2-2-2---------------------------|
                                                                               
   Pre-verse                                                                           
G-|-----------------------------------------------------|
D-|*---------------------------------------------------*| repeat(2x)
A-|*-2-2-x-2-2--2--2-2-x-2-2--2-2-5--5--5-5-5-5-5-5----*|
E-|-----------------------------------------------------|
                                                                               
   Verse (when singing starts)                                                                            
G-|-------------------------------------------------------------|
D-|*--------------------------------------------------5--------*| repeat(4x)
A-|*-2-2-x-2-2--2--2-2-x-2-2--2-2-5--5--5-5-5-5-4-5-4---5-4-3--*|
E-|-------------------------------------------------------------|
                                                                               
   Chorus(Beat me...)                                                                            
G-|-----------------------------------|
D-|----------------------------------*| repeat(8x)
A-|-------0--0-0-0-1-2--2-2-0-0-0----*|
E-|-2-2-2-------------------------3---|
Calificar esta versión:
Aviso: Este fichero es trabajo propio de su transcriptor y representa su interpretación personal de la canción. El material contenido en esta página es para exclusivo uso privado, por lo que se prohibe su reproducción o retransmisión, así como su uso para fines comerciales.
Más versiones de Aneurysm, Nirvana
Aneurysm
tablatura
Aneurysm
bajo
Descubre más canciones de Nirvana