Aero Zeppelin, Nirvana (tablatura)

Autor: nirvana_punk | 22953 visualizaciones



Nirvana   
Album: Incesticide
Música: Aero Zeppelin

Intro/Verse

e|-----------0--0--0--------------0----|
B|----------------------3------3-------|
G|--------------------------3----------|
D|---2-2-------------------------------|
A|---2-2-------------------------------| 
E|---0-0-------------------------------| 

e|-----------0--0--0-------------------|
B|----------------------3------3-------|
G|--------------------------3------3---|
D|---2-2-------------------------------|
A|---2-2-------------------------------| 
E|---0-0-------------------------------| 



D|--2-2-------------|-2-2-------------|
A|--2-2--1-1-2-5-5--|-2-2--2-2-1---1--|
E|--0-0-------------|-0-0--------3--3-|

The guitar-bridge thing:

B|--5--5-5--5-5-5--5--8-8--8-8-8-|---------------------------| 
G|--4--4-4--4-4-4--4--7-7--7-7-7-|---------------------------| 
D|--2--2-2--2-2-2--2--5-5--5-5-5-|---------------------------| 
A|--2--2-2--2-2-2--2--5-5--5-5-5-|--5------4------3------2---| 
E|--0--0-0--0-0-0--0-------------|----5--5---4--4---3--3---2-| 
                                                              
Aero Zeppelin
 
What's the season of love if you can't have everything
what's the reason of love if you can lose everything
what's the meaning of love, it's a crime if anything
what's the meaning of love, it's grand, it's grand

How can a culture can forget it's plan of yesterday
and you swear it's not a trend
does it matter anyways
barely heat the top of friend like it moves everyday
you could shit upon the stairs
you'll be friends
you'll be friends
you'll be friends
you'll be friends

All the kids have laid it out
and it's back is probably
still it's subtle in the tape
keep a form on equally
now you know it's just the fact
where the world is nowadays
and the day is what we learn
does it matter anyways





Calificar esta versión:
Aviso: Este fichero es trabajo propio de su transcriptor y representa su interpretación personal de la canción. El material contenido en esta página es para exclusivo uso privado, por lo que se prohibe su reproducción o retransmisión, así como su uso para fines comerciales.
Más versiones de Aero Zeppelin, Nirvana
Aero Zeppelin
tablatura
Aero Zeppelin (ver 2)
tablatura
Descubre más canciones de Nirvana