No Me Digas Que No, Nikki Clan (bajo)

Autor: SMDP | 40383 visualizaciones



si quieren tocar la guitarra yo la toco con quintas
que parten de la cuerda en el bajo
ejem
        -----
        -----
-----   -----
-----   --4--
-----   --4--
--2--   --2--

INTRO/VERSO:
G|-----------------|-----------------|-----------------|-----------------|
D|-----------------|-----------------|-----------------|-----------------|
A|-----------------|-----------------|-----------------|-----------------|
E|-----------------|-5-5-------------|-5-5-------------|-5-5-------------|
             Amigos...            mas...          Mismo...
PRE-CORO:
G|-----------------|-----------------|-----------------|-----------------|
D|-----------------|-----------------|-----------------|-----------------|
A|-----------------|-5-5-5-5-5-5-5-5-|-----------------|-7-7-7-7-7-7-7-7-|
E|-5-5-5-5-5-5-5-5-|-----------------|-5-5-5-5-5-5-5-5-|-----------------|
CORO:
G|------------------|------------------|
D|------------------|------------------|
A|-------------5555-|-------------5555-|
E|-555500002222-----|-555500002222-----|

G|------------------|------------------|
D|------------------|------------------|
A|-------------5555-|---------55557777-|
E|-555500002222-----|-55550000---------|  x2

VERSO 2:
G|-------------------|-------------------|
D|-------------------|-------------------|
A|----------5555-7777|----------5555-7777|
E|-55555555----------|-55555555----------|
 Te Gusta...         Volarme...

G|-------------------|-------------------|
D|-------------------|-------------------|
A|----------5555-7777|----------5555-7777|
E|-55555555----------|-55555555----------|
 QuE Quieres...      PeRo Te La...

PRE-CORO:
G|-----------------|-----------------|-----------------|-----------------|
D|-----------------|-----------------|-----------------|-----------------|
A|-----------------|-5-5-5-5-5-5-5-5-|-----------------|-7-7-7-7-7-7-7-7-|
E|-5-5-5-5-5-5-5-5-|-----------------|-5-5-5-5-5-5-5-5-|-----------------|
CORO:
G|------------------|------------------|
D|------------------|------------------|
A|-------------5555-|-------------5555-|
E|-555500002222-----|-555500002222-----|

G|------------------|------------------|
D|------------------|------------------|
A|-------------5555-|---------55557777-|
E|-555500002222-----|-55550000---------|  x2
PUENTE:
G|------------------|------------------|------------------|
D|------------------|------------------|------------------|
A|-55-5--7-77--3----|-55-5--7-77--3-55-|-55-5--7-77--3----|
E|---------------33-|------------------|---------------33-|

G|------------------------------------------|
D|------------------------------------------|
A|-----------------555555557777777777777777-|
E|-2222222255555555-------------------------|
CORO:
G|------------------|------------------|
D|------------------|------------------|
A|-------------5555-|-------------5555-|
E|-555500002222-----|-555500002222-----|

G|------------------|------------------|
D|------------------|------------------|
A|-------------5555-|---------55557777-|
E|-555500002222-----|-55550000---------|  x2

G|------------------|------------------|-----|
D|------------------|------------------|-----|
A|-------------5555-|---------55557777-|-----|
E|-555500002222-----|-55550000---------|--5--|





Calificar esta versión:
Aviso: Este fichero es trabajo propio de su transcriptor y representa su interpretación personal de la canción. El material contenido en esta página es para exclusivo uso privado, por lo que se prohibe su reproducción o retransmisión, así como su uso para fines comerciales.
Más versiones de No Me Digas Que No, Nikki Clan
No Me Digas Que No
acordes
No Me Digas Que No (ver 2)
acordes
No Me Digas Que No
tablatura
No Me Digas Que No
bajo
Descubre más canciones de Nikki Clan