Las Curvas De Esa Chica, Nikki Clan (tablatura)

Autor: reset_band | 43232 visualizaciones



MODIFICACION A LA TRANSCRIPCION DE
jose luis (panalgas94@hotmail.com)
**********************************************************************

EMM la cancion completa xD sacada por mi i un amigo

y corrijo el efecto del principio xD
haces que el sonido se vicie poniendo la guitarra frente al ampli

Distorsion
e|(0)---------------------------------------------------------|
B|(0)---------------------------------------------------------|
G|(0)---------------------------------------------------------|
D|(0)---------------------------------------------------------|
A|(0)~~~------------------------------------------------------|
E|(0)~~~------------------------------------------------------|

e|------------------------------------------------------------|
B|------------------------------------------------------------|
G|--7-5-7--7-7--5-5---757-- 10-10--9-9------7-7-------77------|
D|--x-x-x--x-x--x-x---xxx---x--x---x-x------x-x--5-5--xx--55--|
A|--5-3-5--5-5--3-3---535---8--8---7-7------5-5--x-x--55--xx--|
E|-----------------------------------------------3-3------33--|

e|------------------------------------------------------------|
B|------------------------------------------------------------|
G|------------------------------------------------------------|
D|--77-88-10-10-11-11-----------------------------------------|
A|--77-88-10-10-11-11-----------------------------------------|
E|--55-66-8--8--9--9------------------------------------------|

e|---------------------------------------------------------------|
B|---------------------------------------------------------------|
G|--7-5-7--7-7--5-5---757-- 10-10--9-9--10-10--12-12--1010--12-12|
D|--x-x-x--x-x--x-x---xxx---x--x---x-x--10-10--12-12--1010--12-12|
A|--5-3-5--5-5--3-3---535---8--8---7-7--8--8---10-10--8-80--10-10|
E|---------------------------------------------------------------|

e|------------------------------------------------------------|
B|------------------------------------------------------------|
G|-14-14-15-15-17-17-19-19------------------------------------|
D|-14-14-15-15-17-17-19-19------------------------------------|
A|-12-12-11-11-15-15-17-17------------------------------------|
E|------------------------------------------------------------|

Verso
e|------------------------------------------------------------|
B|------------------------------------------------------------|
G|----77---77---77---77---77---77---77---77---77---77---------|
D|----77---77---77---77---77---77---77---77---77---77---------|
A|----55---55---55---55---55---55---55---55---55---55---------|
E|------------------------------------------------------------|
-----> palm muting                ... de la cabeza a los pies...

e|------------------------------------------------------------|
B|------------------------------------------------------------|
G|----5---77---77---77---77---77---77---77---77---77---77-----|
D|----5---77---77---77---77---77---77---77---77---77---77-----|
A|----3---55---55---55---55---55---55---55---55---55---55-----|
E|------------------------------------------------------------|
-----> palm muting

Coro
e|------------------------------------------------------------|
B|------------------------------------------------------------|
G|------------------55----77----33----------------------------|
D|------------33----55----77----33----------------------------| x4
A|------------33----33----55----11----------------------------|
E|------------11----------------------------------------------|

Puente
e|------------------------------------------------------------|
B|------------------------------------------------------------|
G|------------33----------------------55----------------------|
D|------------33----77----66----55----55----------------------|
A|------------11----77----66----55----33----------------------|
E|------------------55----44----33----------------------------|


Verso 2
e|------------------------------------------------------------|
B|------------------------------------------------------------|
G|----77---77---77---77---77---77---77---77---77---77---------|
D|----77---77---77---77---77---77---77---77---77---77---------|
A|----55---55---55---55---55---55---55---55---55---55---------|
E|------------------------------------------------------------|
-----> palm muting                ... de la cabeza a los pies...


e|------------------------------------------------------------|
B|------------------------------------------------------------|
G|----5---77---77---77---77---77---77---77---77---77---77-----|
D|----5---77---77---77---77---77---77---77---77---77---77-----|
A|----3---55---55---55---55---55---55---55---55---55---55-----|
E|------------------------------------------------------------|
-----> palm muting


Coro
e|------------------------------------------------------------|
B|------------------------------------------------------------|
G|------------------55----77----33----------------------------|
D|------------33----55----77----33----------------------------| x4
A|------------33----33----55----11----------------------------|
E|------------11----------------------------------------------|


Puente
e|------------------------------------------------------------|
B|------------------------------------------------------------|
G|------------33----------------------55----------------------|
D|------------33----77----66----55----55----------------------|
A|------------11----77----66----55----33----------------------|
E|------------------55----44----33----------------------------|


Solo
e-------------------------------------------------------------|
B----15-----15-------------15-----15----15----15--------------|
G---12b14--12b14---14p12--12b14--12b14-12b14-12b14---12----12v|
D-------------------------------------------------------14----|
A-------------------------------------------------------------|
E-------------------------------------------------------------|

e-------------------------------------------------------------|
B-------------15---15---15------------------------------------|
G---12h14--14b--14b--14b---12h14--12-----12v------------------|
D-------------------------------------14----------------------|
A-------------------------------------------------------------|
E-------------------------------------------------------------|

e---------------|
B------10h13p10-|
G---13----------| x8
D---------------|
A---------------|
E---------------|

e---10-----------13-12-10-------10----------|
B---13b15v-----13--------13---13b15v--------|
G-------------------------------------------|
D-------------------------------------------|
A-------------------------------------------|
E-------------------------------------------|


e|---------------------------------------------------------------|
B|---------------------------------------------------------------|
G|--7-5-7--7-7--5-5---757-- 10-10--9-9--10-10--12-12--1010--12-12|
D|--x-x-x--x-x--x-x---xxx---x--x---x-x--10-10--12-12--1010--12-12|
A|--5-3-5--5-5--3-3---535---8--8---7-7--8--8---10-10--8-8---10-10|
E|---------------------------------------------------------------|

e|------------------------------------------------------------|
B|------------------------------------------------------------|
G|-14-14-15-15-17-17-19-19------------------------------------|
D|-14-14-15-15-17-17-19-19------------------------------------|
A|-12-12-11-11-15-15-17-17------------------------------------|
E|------------------------------------------------------------|

Coro                                              ultima vez
e|------------------------------------------------------------|
B|------------------------------------------------------------|
G|------------------55----77----33----------------55----------|
D|------------33----55----77----33----------------55----------| x3
A|------------33----33----55----11----------------33----------|
E|------------11----------------------------------------------|

Salida
e|---------------------------------------------------------------|
B|---------------------------------------------------------------|
G|--77--------77---------------------------------------7---------|
D|--xx---55---xx---55--------55----66----88------99----7---------|
A|--55---xx---55---xx--------55----66----88------99----5---------|
E|-------33--------33--------77----88---1010----1111-------------|





Comentarios del colaborador: Lacuerda.net

Calificar esta versión:
Aviso: Este fichero es trabajo propio de su transcriptor y representa su interpretación personal de la canción. El material contenido en esta página es para exclusivo uso privado, por lo que se prohibe su reproducción o retransmisión, así como su uso para fines comerciales.
Más versiones de Las Curvas De Esa Chica, Nikki Clan
Las Curvas De Esa Chica
acordes
Las Curvas De Esa Chica (ver 2)
acordes
Las Curvas De Esa Chica
tablatura
Descubre más canciones de Nikki Clan