Corazon Abierto, Nikki Clan (tablatura)

Autor: cristhian andres bedoya mejia | 38800 visualizaciones



P.1                    P.2
E)------------------------------|----------------------------------|
B)------------------------------|----------------------------------|
G)------------------------------|----------------------------------|
D)------------2---0-------------|----------------4-------2---------|
A)--------0---------------------|----------0-----------------------|
E)--0-0-2-----------------------|----0-0-2-------------------------|

               P.3                           P.4
E)---------------------------------|--------------------------------|
B)----------4------6------7--6--4--|---------4------6------7--5--4--|
G)----6-----4------6------7--6--4--|---6-----4------6------7--5--4--|
D)----6-----2------4------5--4--2--|---6-----2------4------5--3--2--|
A)----4----------------------------|---4----------------------------|
E)---------------------------------|--------------------------------|


             P.5            P.6            P.1            P.2
E)------------------|------------------|-------------|--------------|
B)------------------|------------------|-------------|--------------|
G)------------------|------------------|-------------|--------------|
D)------0--2--0---2-|----4-----4-------|--------2--0-|--------4---2-|
A)----0---------0---|--2---2-----------|------0------|-------0------|
E)------------------|4-------4---------|-0-0-2-------|-0-0-2--------|


CORO
          P.7                    P.8
E)------------------------|-----------------------------|
B)------------------------|-----------------------------|
G)-5-5-5-5-5-5-5-5-5-5-5-5|-5-5-5-5-5-5-5-5-5-5-5-5-----|
D)-7-7-7-7-7-7-7-7-7-7-7-7|-5-5-5-5-5-5-5-5-5-5-5-5-----|
A)-7-7-7-7-7-7-7-7-7-7-7-7|-3-3-3-3-3-3-3-3-3-3-3-3-----|
E)------------------------|-----------------------------|

          P.9       P.10             P.8
E)-------------|--------------|----------------------------|
B)-------------|--------------|----------------------------|
G)-4-4-4-4-4-4-|-2-2-2-2-2-2--|-5-5-5-5-5-5-5-5-5-5-5-5----|
D)-6-6-6-6-6-6-|-4-4-4-4-4-4--|-5-5-5-5-5-5-5-5-5-5-5-5----|
A)-6-6-6-6-6-6-|-4-4-4-4-4-4--|-3-3-3-3-3-3-3-3-3-3-3-3----|
E)-------------|--------------|----------------------------|

SOLO

              P.3                           P.4
E)---------------------------------|--------------------------------|
B)----------4------6------7--6--4--|---------4------6------7--5--4--|
G)----6-----4------6------7--6--4--|---6-----4------6------7--5--4--|
D)----6-----2------4------5--4--2--|---6-----2------4------5--3--2--|
A)----4----------------------------|---4----------------------------|
E)---------------------------------|--------------------------------|

Esta parte tienes que raspar las cuerdas

     P.11                   P.12
E)------------------------|-----------------------------|
B)------------------------|-----------------------------|
G)-5-5-5-5-5-5-5-5-5-5-5-5|-5-5-5-5-5-5-5-5-5-5-5-5-----|
D)-7-7-7-7-7-7-7-7-7-7-7-7|-5-5-5-5-5-5-5-5-5-5-5-5-----|
A)-7-7-7-7-7-7-7-7-7-7-7-7|-3-3-3-3-3-3-3-3-3-3-3-3-----|
E)------------------------|-----------------------------|

          P.13      P.14            P.12
E)-------------|--------------|----------------------------|
B)-------------|--------------|----------------------------|
G)-4-4-4-4-4-4-|-2-2-2-2-2-2--|-5-5-5-5-5-5-5-5-5-5-5-5----|
D)-6-6-6-6-6-6-|-4-4-4-4-4-4--|-5-5-5-5-5-5-5-5-5-5-5-5----|
A)-6-6-6-6-6-6-|-4-4-4-4-4-4--|-3-3-3-3-3-3-3-3-3-3-3-3----|
E)-------------|--------------|----------------------------|

      P.15
E)---------------|
B)---------------|
G)---------------|
D)---------------|
A)---------------|
E)21/1/0-----------|


     P.7                    P.8
E)------------------------|-----------------------------|
B)------------------------|-----------------------------|
G)-5-5-5-5-5-5-5-5-5-5-5-5|-5-5-5-5-5-5-5-5-5-5-5-5-----|
D)-7-7-7-7-7-7-7-7-7-7-7-7|-5-5-5-5-5-5-5-5-5-5-5-5-----|
A)-7-7-7-7-7-7-7-7-7-7-7-7|-3-3-3-3-3-3-3-3-3-3-3-3-----|
E)------------------------|-----------------------------|

          P.9       P.10             P.8
E)-------------|--------------|----------------------------|
B)-------------|--------------|----------------------------|
G)-4-4-4-4-4-4-|-2-2-2-2-2-2--|-5-5-5-5-5-5-5-5-5-5-5-5----|
D)-6-6-6-6-6-6-|-4-4-4-4-4-4--|-5-5-5-5-5-5-5-5-5-5-5-5----|
A)-6-6-6-6-6-6-|-4-4-4-4-4-4--|-3-3-3-3-3-3-3-3-3-3-3-3----|
E)-------------|--------------|----------------------------|

Ahora lo voy a poner con letra

 Intro
P1     p2    p1    p2

p3                 p4

p5        p5       p6        p6       p1    p2
   Oyendo esta cancion,siento mi corazoooon latir

p5        p5      p6        p6        p1    p2
   Me recuerda a ti,el dia en que te coooooonoci

p11                  p12                    p13    p14    p12
   Seee que no es igual,que cuenta no te das,tu eres todo para mi

p7                         p8
No ves mi corazon abierto,no dejes que se pase el tiempo

p9           p10          p8
Tocame aqui,siente latir,muy fuerte muy fuerte por ti

p7                         p8
Jamas podre quererte poco,mi corazon por ti se ha vuelto loco

p9              p10           p8
Hazlo sentir,que puede latir,por siempre por siempre por ti.

p5         p5         p6          p6       p1        p2
   Talvez hay alguien mas, que siempre en tu meeeeente esta

p5           p5        p6          p6         p1         p2
   Pero tienes que saber,que nadie como yoooo te va a querer

p11                 p12                   p13     p14        p12
Dame una oportunidad,y no te arrepentiras,no pierdes tiempo solo fijat

p7                         p8
No ves mi corazon abierto,no dejes que se pase el tiempo

p9           p10          p8
Tocame aqui,siente latir,muy fuerte muy fuerte por ti

p7                         p8
Jamas podre quererte poco,mi corazon por ti se ha vuelto loco

p9              p10           p8
Hazlo sentir,que puede latir,por siempre por siempre por ti.


Solo=p3,p4p3

p11                 p12
Seee que no es igual,dame una oportunidad
p13     p14        p12
,no pierdes tiempo solo fijat

No ves mi corazon abierto,no dejes que se pase el tiempo

                                  p15
Tocame aqui,siente latir,muy fuerte muy fuerte por ti



p7                         p8
Jamas podre quererte poco,mi corazon por ti se ha vuelto loco

p9              p10           p8
Hazlo sentir,que puede latir,por siempre por siempre por ti.

p7                         p8
Jamas podre quererte poco,mi corazon por ti se ha vuelto loco

p9              p10           p8
Hazlo sentir,que puede latir,por siempre por siempre por ti.





Calificar esta versión:
Aviso: Este fichero es trabajo propio de su transcriptor y representa su interpretación personal de la canción. El material contenido en esta página es para exclusivo uso privado, por lo que se prohibe su reproducción o retransmisión, así como su uso para fines comerciales.
Más versiones de Corazon Abierto, Nikki Clan
Corazon Abierto
acordes
Corazon Abierto
tablatura
Descubre más canciones de Nikki Clan