Te Quiero, Nigga (tablatura)

Autor: mcr_xacsel | 23760 visualizaciones

Te Quiero


D                    A
Narananai    naranananaina
e-0-0-0-0----0-0-0-0-0-0-1-0-|
B----------------------------|
                      G
Narananai    naranananain
e-----------------------0---|
B-3-3-3-3----3-3-3-3-3-3--3-|
             D          A
Narananai    naranananaina
e----------------------------|
B-1-1-1-1----1-1-1-1-1-1-3-1-|

(CORO)
          Bm
Es que te quiero uoooo
e-0-0-0-5-3-2-|
B-------------|

      D       A
baby te quiero uoooo
e-2-3-2-5-3-2-0-|
B---------------|

       G
Desde que te he conocido
e-0-2-3-3-3-3-3---|
B---------------3-|

      D      A
yo vivo tan feliz
e---0-2-3-2-0--|
B-3------------|


   D
Hay como quisiera en este instante abrazarte
e-0-0-0-0-0-0-0-0-0-3-1-0---|
B-------------------------3-|

A
Y mil canciones  al oído cantarte
e-------------------1-0-----|
B-3-3-3-3-3-3-3-3-3-----3-1-|

G
Muchas rosas a tu vida regalarte
e---------------------0-------|
B-1-1-1-1-1-1-1-1-1-1---3-1-3-|


     D              A
Es que tú me enamoraste
e-----------1-0----|
B-3-3-3-3-3-----3--|
   D
Es que eres el lucero que ilumino mi vida
e-0-0-0-0-0-0-0-0-0-3-1-0---|
B-------------------------3-|

A
si no te tengo e mi canción no existen melodías
e-------------------1-0-----|
B-3-3-3-3-3-3-3-3-3-----3-1-|

G
Tú me haces falta baby de noche y de día
e---------------------0-------|
B-1-1-1-1-1-1-1-1-1-1---3-1-3-|

      D                                 A
Sin tu inspiración no existiría esta poesía
e-------------------1-0---|
B-3-3-3-3-3-3-3-3-3-----3-|


(CORO)


D                  A
Tú que me haces soñar
e-0-----0-1-0-----|
B----1-3------1/3-|

                      G
Y a las estrellas llegar
e-------0-------|
B-0-1-3---3-0/1-|

         D        A
Con solo pensarte baby
e------0-0-1-0---0-|
B0/1-3---------3---|

  D                 A
Tú que me sueles llenar
e-0-----0-1-0-----|
B----1-3------1/3-|

              G
Eres mi aire vital
e-------0-------|
B-0-1-3---3-0/1-|


          D       A
Sin ti no respiro baby
e------0-0-1-0---0-|
B0/1-3---------3---|

 D
Tú no te imaginas
e-0-------------|
B---3-1-0-1-1/3-|

     A
La falta que me haces
e-----------------|
B-3-3-1-0---0-0/1-|
G---------2-------|

           G
Cuando no te tengo cerca
e---------------|
B-1-1-0-------0-|
G-------2-0-2---|

     D          (   )
Me muero por llamarte
e-----------------|
B-3-3-1-0---0-0/1-|
G---------2-------|

Comentarios del colaborador: romanticstile in the world bueno espero que les guste

Calificar esta versión:
Aviso: Este fichero es trabajo propio de su transcriptor y representa su interpretación personal de la canción. El material contenido en esta página es para exclusivo uso privado, por lo que se prohibe su reproducción o retransmisión, así como su uso para fines comerciales.
Más versiones de Te Quiero, Nigga
Te Quiero
acordes
Te Quiero (ver 2)
acordes
Te Quiero (ver 3)
acordes
Te Quiero (ver 4)
acordes
Te Quiero (ver 5)
acordes
Te Quiero
tablatura
Te Quiero
armonica
Descubre más canciones de Nigga