Después De Tí ¿que?, Nicho Hinojosa (acordes) (ver 2)

Autor: Anónimo | 39880 visualizaciones

amcdm7emg
Despues de Ti ¿Qué? -  Nicho Hinojosa

Esta es una correcion de las versiones anteriores; espero que sea de su agrado.

-INTRO-
e|---0---0-------------------------------
B|---------------1-----------1-----------
G|-----------0------------------0--------
D|-----------------------2---------------
A|---3---3----------3--------------2---
E|----------------------------------------

e|-------------0---0-------------------------0---1---1-------------------1---3-3---------------
B|-----------------1--------------------1--------------1------------------1-------------1---------0
G|--------0-------------2---------------2------------------2---------2--------------0-------------
D|2---------------------------------2----------0---0------------0----------------------------------
A|-----------------0---0-------------0---------------------------------------------------------------
E|-----------------------------------------------------------------------------3---3-----------------
C
Despues de la tormenta
   Dm7
la calma reinara,
G
despues de cada dia
    C            Em  Am [Bajeo]
la noche llegara
Am
despues de un dia de lluvia
    Em
es sol se asomara
     Dm7
y despues de ti,¿que?
      G
y despues de ti,¿que?


  C
Despues de cada instante
    Dm7
el mundo girara,
   G
despues de cada año
     C          Em  Am [Bajeo]
mas tiempo se nos va,
Am
despues de un buen amigo
      Em
otro amigo encontraras
    Dm7
y despues de ti,¿que?
     G
y despues de ti,¿que?


      -CORO-
C                      G
Despues de ti no hay nada
   Am            Em
ni sol ni madrugada
Dm7
ni lluvia no tormenta
     G
ni amigos ni esperanza.

C                      G
Despues de ti no hay nada
Am            Em
mi vida ni en el alma,
Dm7
ni paz que me consuele
G
no hay nada si tu faltas.

      -INTRO-

MISMOS TONOS

Despues de haber tenido
siempre vuelves a tener
despues de haber querido
lo intentas otra vez,
despues de lo vivido
siempre hay un despues,
y despues de ti,¿que?
y despues de ti,¿que?

      -CORO-

C                   Em
Despues de ti,¿que?
Dm7     G              C
despues de ti,¿que es?



      COMENTARIOS A LA SIGUIENTE DIRECCION: damermau18@hotmail.com
Calificar esta versión:
Aviso: Este fichero es trabajo propio de su transcriptor y representa su interpretación personal de la canción. El material contenido en esta página es para exclusivo uso privado, por lo que se prohibe su reproducción o retransmisión, así como su uso para fines comerciales.
Más versiones de Después De Tí ¿que?, Nicho Hinojosa
Después De Tí ¿que?
acordes
Después De Tí ¿que? (ver 2)
acordes
Después De Tí ¿que? (ver 3)
acordes
Descubre más canciones de Nicho Hinojosa