Contigo Aprendí, Nicho Hinojosa (tablatura)

Autor: Anónimo | 34339 visualizaciones

Esta rola se la dedico a un compañero que en verdad no se
su nombre, el me la pidio por correo espero te guste.
sugerencias a my correo gracias
      
                e-------------3-3-------------------------3---
                B------0-----3---------------------0----------
                G----0------0-----0--------0------------------
                D----------0----------------------------------
                A---------------------------------------------
                E-3------------------3------------------------      F#m      
Contigo aprendí,                  que existen nuevas y mejores

e---------------4-2------0---0-------------
B--------------2----2----2---------4-------
G-----------2-2-------2----2---2--2--2-----
D---------2----------------------4-----4---
A-------4--------------------------------2-
E-0-1-2------------------------------------
            emociones             Contigo aprendí

e---------0-------------------------0----0-----1-----1---1-----------------
B------3--------3--------------3---3----2----3---3-2---1---------0--1--1s3-
G-------2---------0---------0-----0----0-----2---2-2---2------0--0--2--2s4-
D---2h4--4---------------2-------2----1----0-------------------------------
A--------------------------------------------------------------------------
E-0------------------0-------------------------------------3---------------
                 a conocer un mundo lleno de ilusiones

e--------------3-3-------------------6-5-------------
B-------------1----1----------------4----------------
G---------0--0-------0--------3----3-----3-----------
D------2----2--------------5------5------------------
A---3-------------------3----------------------------
E----------------------------------------------------
Aprendí,            que la semana tiene mas de 7 días

e------------------------------0-----------------------0----
B-----3-------1-------0-----0-----------1---3---1-----------
G---0---0---2---2---1----2--------2-----2---4---0---0-----0-
D-----------------------------------------------------------
A------------------------0--2--------0----------------------
E-3-------1-------0-----------------------------------------
                   A hacer mayores mis contadas alegrías

e--------------------0--------2----0-0--2-2-x-2-x-
B--------1-----3------------------3--3--3-3-x-3-x-
G--------2------------------2----2---2--2-2-x-2-x-
D-----2-----2-----2-----2-0-----0----0--0-0-x-0-x-
A-0----------------------------------0--0-0-x-0-x-
E-------------------------------------------------
  y a ser dichoso yo contigo lo aprendí
G                                           F#m            B7
Contigo aprendí, a ver la luz del otro lado de la luna
              
                   e-------------2----0----0---1------1-1-1-3-3-3-3-3-3-
                   B-----------------3----2----3-----1--1-1-3-3-3-3-3-3-
                   G--------0-------0----0-------2--2---2-2-0-0-0-0-0-0-
                   D---------------2----1----0-----0----0-0-0-0-0-0-0-0-
                   A----------------------------------------2-2-2-2-2-2-
  Em       Em9     E----0----------------------------------------------- Dm
Contigo aprendí, y tu presencia no la cambio por ninguna
(G con cejilla ligado a F#)    Cm                                     G     F
       Aprendí,               que puede un beso ser mas dulce y mas profundo
       Em                  C
que puedo irme mañana mismo de este mundo            
         D         D9            Bm7
las cosas buenas yo contigo las viví

e---------------------------3-------------3----2-x-3-3-3-2/3-3-3-
B--------0-----3-3---1-3-1--------------------3--x-3-3-3-2/3-3-3-
G--------0----2------2-4-0-2------------2----2---x-4-4-4-3/4-4-4-
D------------4------------------------------0----x-5-5-5-4/5-5-5-
A-----------2------0------0------------------------5-5-5-4/5-5-5-
E---0---------------------------------3------------3-3-3-2/3-3-3-  G  Gsus4
  Contigo aprendí,         que yo nací, el día en que te conocí
G                                           F#m            B7
Contigo aprendí a ver la luz del otro lado de la luna...
          Em9   Em       Em9      Em9 - Em          Dm     Dm7    
Contigo aprendí, que tu presencia no la cambio por ninguna
       G               Cm                       G     F
Aprendí, que puede un beso ser mas dulce y mas profundo
       Em                  C
que puedo irme mañana mismo de este mundo
         D         D9            Bm7
las cosas buenas yo contigo las viví

                e----------3-------------3----2-
                B---1-3-1--------------------3--
                G---2-4-0-2------------2----2---
                D--------------------------0----
(rasgueado)     A-0------0----------------------
(C   G  Em  G)  E--------------------3---------- 
Contigo aprendí,         que yo nací, el día en que te conocí 

e------------------------------------------2------2------3-------2-
B-------3-----3-------3-------3---1-3-5---3------1------3-------3--
G-----0---0---------0-------0-----2-4-5--2------2------0-------4---
D---2-------2-----2-------2-------------0------0------0-------5----
A-3-------------3-------2-------0--------------------2-------0-----
E---------------------------------------------------3-------0------
                                       Contigo aprendí

Em9     022001
D9      000230
Gsus4   355533
Dm7     000211
Calificar esta versión:
Aviso: Este fichero es trabajo propio de su transcriptor y representa su interpretación personal de la canción. El material contenido en esta página es para exclusivo uso privado, por lo que se prohibe su reproducción o retransmisión, así como su uso para fines comerciales.
Más versiones de Contigo Aprendí, Nicho Hinojosa
Contigo Aprendi
acordes
Contigo Aprendí
tablatura
Descubre más canciones de Nicho Hinojosa