Coincidir, Nicho Hinojosa (tablatura)

Autor: Anónimo | 19702 visualizaciones

Esta rola es una correcion de la primera que mande puesto que el final estaba 
mal pero ya esta espero les guste, le mando saludos a Nazario 
y a Pepe del Chino.

e|-------------------0--2--3-------3---2----2--
B|--0--1---0-1----3--0--0--0------3--------3---
G|--0--0--0--0----2--2--2--2-----2--------2----
D|------------------------------0--------0-----
A|---------------------------------------------
E|--3------------------------------------------

e|--------2-2h3p2------0-0---------
B|------3---------3--------0-1-----
G|----2-------------0--------0-----
D|--0------------------------------
A|---------------------3---2-3-2-3-
E|---------------------------------
                    
e|-----------0---3-3-----3-------------2-3p2----------0---
B|--1-0-1--3---0-3---3---3-----------3-------3------3-3-3-
G|--0-0-0--2---0-------0-----------2-----------0---0----0-
D|-------------------------------0~---------------2-------
A|-------------------------0h2h3-----------------3--------
E-----3---------------------------------------------------
                       
e|-------------------0--2--3-------3---2----2--
B|--0--1---0-1----3--0--0--0------3--------3---
G|--0--0--0--0----2--2--2--2-----2--------2----
D|------------------------------0--------0-----
A|---------------------------------------------
E|--3------------------------------------------

e|--2-2-2h3p2------0-0---------
B|--3-3-3-----3--------0-1-----
G|--2-2-2-------0--------0-----
D|--0-0-0----------------------
A|-----------------3---2-3-2-3-
E|-----------------------------

e|-----------0---3-3/5-53-3-------------2-3p2-----------
B|--1-0-1--3---0-3-3/5-53-3-----------3-------3------3--
G|--0-0-0--2---0---------------------2-----------0---0---
D|---------------------------------0~---------------2----
A|---------------------------0h2h3-----------------3-----
E-----3--------------------------------------------------

e---------3------------3P2---0H2P0-0-
B-----3-----3----3----3---3--3-----3-
G---0---0-------0----2-----2------2--
D--------------2----0----------------
A-------------3----------------------
E-3----------------------------------
Soy vecino de este mundo por un rato

e---------------------------------2-2-2-
B---1---1---1---3-----0-1P0-------3-3-3-
G---0---0---0---2---0-------0---2-2-2-2-
D-------------0---------------0---0-0-0-
A-3---2---0-----------------------------
E-----------------3---------------------
hoy coincide que también tu estas aquí

e---------3------------3P2---0H2P0-----0H2P0-----
B-----3-----3----3----3---3--------3---------3---
G---0---0-------0----2-----2---------2---------2-
D--------------2----0----------------------------
A-------------3----------------------------------
E-3----------------------------------------------
coincidencias tan extrañas, de la vida



e----------------------------2-
B-----3-------3-------3-----3--
G-----0-------0-------0----2---
D---2---2---0---0---2---2-0----
A-3-------2-------0------------
E------------------------------
tantos siglos, tantos mundos, tanto espacioooo... y coincidir.

e|-------------------0--2--3-------3---2----2----0---
B|--0--1---0-1----3--0--0--0------3--------3----3--3-
G|--0--0--0--0----0--------------2--------2----0---2-
D|------------------------------0--------0----2----0-
A|-------------------------------------------3-------
E|--3------------------------------------------------   

G                  C9           D   D9    D
Si navego con la mente en los espacios

C      C/B    A7      D       G     D
e---------------------------------2-2-2-
B---1---1---1---3-----0-1P0-------3-3-3-
G---0---0---0---2---0-------0---2-2-2-2-
D-------------0---------------0---0-0-0-
A-3---2---0-----------------------------
E-----------------3---------------------
o si quiero a mis ancestros recordar
G                  C9          D    D9   D
agobiado me detengo y no imagino

C9       C9/B     C9/A      D
e----------------------------2-
B-----3-------3-------3-----3--
G-----0-------0-------0----2---
D---2---2---0---0---2---2-0----
A-3-------2-------0------------
E------------------------------
tantos siglos tantos mundos tanto espacioooo...y coincidir.      

e|-------------------0--2--3-------3---2----2--
B|--0--1---0-1----3--0--0--0------3--------3---
G|--0--0--0--0----0--------------2--------2----
D|------------------------------0--------0-----
A|---------------------------------------------
E|--3------------------------------------------

e|--2-2-2h3p2------0-0---------
B|--3-3-3-----3--------0-1-----
G|--2-2-2-------0--------0-----
D|--0-0-0----------------------
A|-----------------3---2-3-2-3-
E|-----------------------------

e|--------------3-3-3-3------------2-3p2----------0-
B|--1-0-----3---3-3-3-3-----------3-------3------3--
G|--0-0-0-0---0-0-0-0-0---------2-----------0---0---
D|------0-0-----0-0-0-0-------0~---------------2----
A|----------------------0h2h3-----------------3-----
E-----3---------------------------------------------

G                  C9           D   D9    D
Si en la noche me entretengo en las estrellas
C      C/B    A7      D       G     D
e---------------------------------2-2-2-
B---1---1---1---3-----0-1P0-------3-3-3-
G---0---0---0---2---0-------0---2-2-2-2-
D-------------0---------------0---0-0-0-
A-3---2---0-----------------------------
E-----------------3---------------------
y capturo la que empieza a florecer
G                  C9          D    D9   D
la sostengo entre mis manos, mas me alarma

C9       C9/B     C9/A     D
e----------------------------2-
B-----3-------3-------3-----3--
G-----0-------0-------0----2---
D---2---2---0---0---2---2-0----
A-3-------2-------0------------
E------------------------------
tantos siglos tantos mundos tanto espacioooo...y coincidir.

e|-------------------0--2--3---------0-0-0-0-0-0-0-
B|--0--1---0-1----3--0--0--0--------0--0-0-0-0-0-0-
G|--0--0--0--0----0----------------1---1-1-2-2-2-2-
D|--------------------------------2----2-2-2-2-2-2-
A|-------------------------------2-----2-2-2-2-2-2-
E|--3---------------------------0------2-2-2-2-2-2-

A                   D9           E    Esus4
Si la vida se sostiene por instantes

E-----------------------0-
B---3---3----3----0----2--
G---2---2---2----1----2---
D-0--------4----2----2----
A-----4---2----2----0-----
E-------------------------              E  Esus4
y un instante es el momento de existir
A                   D9           E
si tu vida es otro instante, no comprendo      
                                 e----------------------------0-
                                 B---------0-----------------0--
                                 G-----1H2---2-1H2P1--------1---
                                 D---2---------------2-----2----
                                 A---------------------2--2-----
                                 E-0---------------------0------

e-----2-------2-------2-------0--------1-1-----------0-----
B-----3-------3-------3-------0-------1----1-------1---1---
G---2---2---2---2---2---2---1---1----2-------2---2-------2-
D-0---------------------------------3----------------------
A---------4-------2----------------3-----------------------
E-------------------------0-------1------------1-----------
tantos siglos tantos mundos tanto espacioooo...y coincidir.

e-----------2-4------5-
B-2-3-2-3-5-3-5-----5--
G-2-2-2-2-4--------6---
D-----------------7----
A----------------7-----
E---------------5------

D9    X00230
C9    032030
C/B   022010   
C9/B  022030         
C9/A  002030
Esus4 022200
Calificar esta versión:
Aviso: Este fichero es trabajo propio de su transcriptor y representa su interpretación personal de la canción. El material contenido en esta página es para exclusivo uso privado, por lo que se prohibe su reproducción o retransmisión, así como su uso para fines comerciales.
Más versiones de Coincidir, Nicho Hinojosa
Coincidir
acordes
Coincidir (ver 2)
acordes
Coincidir (ver 3)
acordes
Coincidir (ver 4)
acordes
Coincidir
tablatura
Descubre más canciones de Nicho Hinojosa