Ay Amor, Nicho Hinojosa (tablatura) (ver 2)

Autor: Anónimo | 26335 visualizaciones

ESTA ES UNA VERSION CON INTRODUCCION PARA GUITARRA Y OTRA PARA REQUINTO
LOS ACORDES QUE APARECEN ARRIBA DE LA LETRA SON PARA GUITARRA. EN LA PARTE DE ABAJO ESPECIFICO LOS ACORDES QUE LE CORRESPONDE AL REQUINTO
BUENO PUES ESTA ES MI VERSION DE ESTA MUY BUENA CANCIONESPERO QUE LES SALGA BIEN.


INTRO (PARA GUITARRA)

      G              Em                   C                      D7              G
  
E  |----------------|-------------------|-8-------------------|----------------|---|
B )|----------------|-7-----------------|---------------------|-5--------------|---|
G  |--5-------------|-------------------|------10-------------|----------------|-5-|
D  |--7-7-7---7---7-|-7-7-7---7---7-----|----9----9-----------|-7---7--7-7--7--|-7-|
A )|--8-8-8--8---8--|-8-8-8--8---8--8-8-|-8-8------8-8-8-8-8--|-7--7-7-7-7--7--|-8-|
E  |--7-8-7-----7---|-7-8-7-----7---7-8-|-8----------8-9-8-10-|-10-----8-10-10-|-7-|
  /

INTRO (PARA REQUINTO)


     D               Bm                  G                 A7            D
E  |----------------|-------------------|-3-----------------|-------------|---|
B )|----------------|-2-----------------|-------------------|-0-----------|---|
G  |--0-------------|-------------------|------5------------|-------------|-0-|
D  |--2-2-2---2---2-|-2-2-2---2---2-----|----4---4----------|-2--2--2-2-2-|-2-|
A )|--3-3-3--3---3--|-3-3-3--3---3--3-3-|-3-3-----3-3-3-3-3-|-2-2-2-2-2-2-|-3-|
E  |--2-3-2-----2---|-2-3-2-----2---2-3-|-3---------3-4-3-5-|-5-----3-5-5-|-2-|
  /

G                     Em
No sé por donde comenzar
            D7       C
Es muy difícil para mí
          Bm            Am
Como explicar que ya acabó
              D7
Que el sentimiento cambia.

G                             Em
El tiempo no es un buen guardián
            D7        C
Y la distancia no ayudo
       Bm             Am
Algo pasó, alguien llego
        D7
Y no tiene remedio.

C    D7
Ay amor
    G  Em
perdóname
C
Solo intento no hacer daño
Am            D7
Sin mentiras, sin engaños.

C    D7
Ay amor
    G   Em
entiéndeme
C
se que es duro
  D7               G
y no se lo que hacer.

G                        Em
Si quieres verme alguna vez
         D7            C
Tan solo llama y volveré
         Bm          Am
Si tu dolor te deja ver

         D7
Quisiera ser tu amigo.

G                      Em
Yo nunca te podré olvidar
          D7          C
Pero el amor es como es
        Bm         Am
A veces da a veces no
        D7
Y no tiene remedio.


C    D7
Ay amor
    G  Em
perdóname
C
Solo intento no hacer daño
Am            D7
Sin mentiras, sin engaños.

C    D7
Ay amor
    G   Em
entiéndeme
C
se que es duro
  D7               G
y no se lo que hacer.

C    D7
Ay amor
    G  Em
perdóname
C
se que es duro
  D7               G
y no se lo que hacer.


      G              Em                   C                      D7              G
  
E  |----------------|-------------------|-8-------------------|----------------|---|
B )|----------------|-7-----------------|---------------------|-5--------------|---|
G  |--5-------------|-------------------|------10-------------|----------------|-5-|
D  |--7-7-7---7---7-|-7-7-7---7---7-----|----9----9-----------|-7---7--7-7--7--|-7-|
A )|--8-8-8--8---8--|-8-8-8--8---8--8-8-|-8-8------8-8-8-8-8--|-7--7-7-7-7--7--|-8-|
E  |--7-8-7-----7---|-7-8-7-----7---7-8-|-8----------8-9-8-10-|-10-----8-10-10-|-7-|
  /



     D               Bm                  G                  A7            D
E  |----------------|-------------------|-3-----------------|-------------|---|
B )|----------------|-2-----------------|-------------------|-0-----------|---|
G  |--0-------------|-------------------|------5------------|-------------|-0-|
D  |--2-2-2---2---2-|-2-2-2---2---2-----|----4---4----------|-2--2--2-2-2-|-2-|
A )|--3-3-3--3---3--|-3-3-3--3---3--3-3-|-3-3-----3-3-3-3-3-|-2-2-2-2-2-2-|-3-|
E  |--2-3-2-----2---|-2-3-2-----2---2-3-|-3---------3-4-3-5-|-5-----3-5-5-|-2-|
  /


                              GUITARRA REQUINTO:


          TRANSPORTACION       SOL(G)   RE(D)
            DE ACORDES         RE7(D7)  LA7(A7)
           DE GUITARRRA        Lam(Am)  Mim(Em)
  SFA#m      A REQUINTO         Sim(Bm)  Fa#m(F#m)
DO                             Do(C)    SOL(G)
                               Mim(Em)  Sim(Bm)
Calificar esta versión:
Aviso: Este fichero es trabajo propio de su transcriptor y representa su interpretación personal de la canción. El material contenido en esta página es para exclusivo uso privado, por lo que se prohibe su reproducción o retransmisión, así como su uso para fines comerciales.
Más versiones de Ay Amor, Nicho Hinojosa
Ay Amor
acordes
Ay Amor
tablatura
Ay Amor (ver 2)
tablatura
Ay Amor
teclado
Descubre más canciones de Nicho Hinojosa