Asi Son Ellas, Nicho Hinojosa (tablatura)

Autor: xdies | 36965 visualizaciones

INTRO
            Bb		       Am7              D7         Gm7               Cm7       D7
e -----10-8-10--10-11-13-11-10-8-7-8-10-11-10-8----------8-10-------15---3-5-6--3-6-5--5-3-2--10--| 
B ----------------------------------------------11-10-11------11----------------------------------|
G --10-----------------------------------------------------------12-------------------------------|
D ------------------------------------------------------------------------------------------------|
A ------------------------------------------------------------------------------------------------|
E ------------------------------------------------------------------------------------------------|

                  Gm7
No hay que comprenderlas
	   Cm7
solamente amarlas
	      F7sus4		 F7
las cosas más bellas de está creación 
		 Bbmaj7  D7sus4  D4
son las flores y ellas.


		  Gm7
No hay que comprenderlas
	      Cm7
pues son un dilema
	  F7sus4	      F7
de cada mirada de sus lindos ojos
            Bbmaj7  G7sus4
nacen mil poemas.


  G7        Cm7			    F7
A veces son dulces, cariñosas y tiernas,
	    Bbmaj7	     Ebmaj7
a veces tan sólo palabras obscenas,
	    Cm7			   D7
con duros reproches, llenas de arrebatos
	     Gm     G7
pero así son ellas;
	 Cm7		  F7
mañanas azules y tardes doradas,
	      Bbmaj7		    Ebmaj7
con sol y con lluvia, con risas y lágrimas,
	     Cm7                D7
llenas de contrastes, luceros fugaces
	    Gm7
y a veces estrellas.


REQUINTO
    Gm7				   Cm7			 D7               Gm7
e --6-5-6-5---6-5----3-----5-6-8-6-8-6-5-6-8---11-10--8--10-----------10--15--| 
B ----------8------3-----8-----------------------------------------10-----15--|
G --------------------------------------------------------------11--------15--|
D -----------------------------------------------------------12---------------|
A ----------------------------------------------------------------------------|
E ----------------------------------------------------------------------------|


		 Gm7
Y es que así son ellas
            Cm7
ángeles del cielo
F7sus4			 F7
ternura y pasión, odio y amor,
	     Bbmaj7  G7sus4
seda y terciopelo.


  G7        Cm7			    F7
A veces son dulces, cariñosas y tiernas,
	    Bbmaj7	     Ebmaj7
a veces tan sólo palabras obscenas,
	    Cm7			   D7
con duros reproches, llenas de arrebatos
	     Gm     G7
pero así son ellas;
	 Cm7		  F7
mañanas azules y tardes doradas,
	      Bbmaj7		    Ebmaj7
con sol y con lluvia, con risas y lágrimas,
	     Cm7                D7
llenas de contrastes, luceros fugaces
	    Gm7    Cm7   D7  Gm7
y a veces estrella-a-a-a-a-a-as,
                  Cm7    D7
no hay que comprenderlas 
              Gm7  Cm7  D7  Gm7
solamente amarlas.

FINAL

e ---------------------------5--6-5-----------| 
B ---------------------6--8----------8--6--8--| 
G -----------5--7---8-------------------------|
D --5--7--8-----------------------------------|
A --------------------------------------------|
E --------------------------------------------|

Comentarios del colaborador: la cuerda.net

Calificar esta versión:
Aviso: Este fichero es trabajo propio de su transcriptor y representa su interpretación personal de la canción. El material contenido en esta página es para exclusivo uso privado, por lo que se prohibe su reproducción o retransmisión, así como su uso para fines comerciales.
Más versiones de Asi Son Ellas, Nicho Hinojosa
Asi Son Ellas
acordes
Asi Son Ellas (ver 2)
acordes
Asi Son Ellas
tablatura
Descubre más canciones de Nicho Hinojosa